  0
SECTION
  2
HEADER
  9
$ACADVER
  1
AC1015
  9
$ACADMAINTVER
 70
    20
  9
$DWGCODEPAGE
  3
ANSI_932
  9
$INSBASE
 10
0.0
 20
0.0
 30
0.0
  9
$EXTMIN
 10
1913.320545
 20
284.208852
 30
0.0
  9
$EXTMAX
 10
2105.320545
 20
565.3309809999998
 30
0.0
  9
$LIMMIN
 10
1913.319557
 20
284.207862
  9
$LIMMAX
 10
2105.321557
 20
565.331994
  9
$ORTHOMODE
 70
     1
  9
$REGENMODE
 70
     1
  9
$FILLMODE
 70
     1
  9
$QTEXTMODE
 70
     0
  9
$MIRRTEXT
 70
     0
  9
$LTSCALE
 40
4.685369
  9
$ATTMODE
 70
     1
  9
$TEXTSIZE
 40
3.2
  9
$TRACEWID
 40
0.05
  9
$TEXTSTYLE
  7
高3.2
  9
$CLAYER
  8
0
  9
$CELTYPE
  6
CONTINUOUS
  9
$CECOLOR
 62
   256
  9
$CELTSCALE
 40
1.0
  9
$DISPSILH
 70
     0
  9
$DIMSCALE
 40
1.0
  9
$DIMASZ
 40
2.5
  9
$DIMEXO
 40
0.25
  9
$DIMDLI
 40
0.2
  9
$DIMRND
 40
0.0
  9
$DIMDLE
 40
0.0
  9
$DIMEXE
 40
1.25
  9
$DIMTP
 40
0.0
  9
$DIMTM
 40
0.0
  9
$DIMTXT
 40
3.0
  9
$DIMCEN
 40
0.0
  9
$DIMTSZ
 40
0.0
  9
$DIMTOL
 70
     0
  9
$DIMLIM
 70
     0
  9
$DIMTIH
 70
     0
  9
$DIMTOH
 70
     0
  9
$DIMSE1
 70
     0
  9
$DIMSE2
 70
     0
  9
$DIMTAD
 70
     3
  9
$DIMZIN
 70
     8
  9
$DIMBLK
  1
Open30
  9
$DIMASO
 70
     1
  9
$DIMSHO
 70
     1
  9
$DIMPOST
  1

  9
$DIMAPOST
  1

  9
$DIMALT
 70
     0
  9
$DIMALTD
 70
     3
  9
$DIMALTF
 40
0.03937007874016
  9
$DIMLFAC
 40
1.0
  9
$DIMTOFL
 70
     1
  9
$DIMTVP
 40
0.0
  9
$DIMTIX
 70
     0
  9
$DIMSOXD
 70
     0
  9
$DIMSAH
 70
     0
  9
$DIMBLK1
  1

  9
$DIMBLK2
  1

  9
$DIMSTYLE
  2
1：1
  9
$DIMCLRD
 70
     0
  9
$DIMCLRE
 70
     0
  9
$DIMCLRT
 70
     4
  9
$DIMTFAC
 40
1.0
  9
$DIMGAP
 40
0.625
  9
$DIMJUST
 70
     0
  9
$DIMSD1
 70
     0
  9
$DIMSD2
 70
     0
  9
$DIMTOLJ
 70
     0
  9
$DIMTZIN
 70
     8
  9
$DIMALTZ
 70
     0
  9
$DIMALTTZ
 70
     0
  9
$DIMUPT
 70
     1
  9
$DIMDEC
 70
     2
  9
$DIMTDEC
 70
     2
  9
$DIMALTU
 70
     2
  9
$DIMALTTD
 70
     3
  9
$DIMTXSTY
  7
STANDARD
  9
$DIMAUNIT
 70
     0
  9
$DIMADEC
 70
     1
  9
$DIMALTRND
 40
0.0
  9
$DIMAZIN
 70
     2
  9
$DIMDSEP
 70
    46
  9
$DIMATFIT
 70
     0
  9
$DIMFRAC
 70
     0
  9
$DIMLDRBLK
  1
Open30
  9
$DIMLUNIT
 70
     2
  9
$DIMLWD
 70
    -2
  9
$DIMLWE
 70
    -2
  9
$DIMTMOVE
 70
     0
  9
$LUNITS
 70
     2
  9
$LUPREC
 70
     4
  9
$SKETCHINC
 40
0.1
  9
$FILLETRAD
 40
0.0
  9
$AUNITS
 70
     0
  9
$AUPREC
 70
     0
  9
$MENU
  1
.
  9
$ELEVATION
 40
0.0
  9
$PELEVATION
 40
0.0
  9
$THICKNESS
 40
0.0
  9
$LIMCHECK
 70
     0
  9
$CHAMFERA
 40
0.0
  9
$CHAMFERB
 40
0.0
  9
$CHAMFERC
 40
0.0
  9
$CHAMFERD
 40
0.0
  9
$SKPOLY
 70
     0
  9
$TDCREATE
 40
2456071.763533808
  9
$TDUCREATE
 40
2456071.388533808
  9
$TDUPDATE
 40
2457357.552025532
  9
$TDUUPDATE
 40
2457357.177025532
  9
$TDINDWG
 40
0.0112149306
  9
$TDUSRTIMER
 40
0.0112149306
  9
$USRTIMER
 70
     1
  9
$ANGBASE
 50
0.0
  9
$ANGDIR
 70
     0
  9
$PDMODE
 70
     0
  9
$PDSIZE
 40
0.0
  9
$PLINEWID
 40
0.0
  9
$SPLFRAME
 70
     0
  9
$SPLINETYPE
 70
     6
  9
$SPLINESEGS
 70
     8
  9
$HANDSEED
  5
8A8
  9
$SURFTAB1
 70
     6
  9
$SURFTAB2
 70
     6
  9
$SURFTYPE
 70
     6
  9
$SURFU
 70
     6
  9
$SURFV
 70
     6
  9
$UCSBASE
  2

  9
$UCSNAME
  2

  9
$UCSORG
 10
0.0
 20
0.0
 30
0.0
  9
$UCSXDIR
 10
1.0
 20
0.0
 30
0.0
  9
$UCSYDIR
 10
0.0
 20
1.0
 30
0.0
  9
$UCSORTHOREF
  2

  9
$UCSORTHOVIEW
 70
     0
  9
$UCSORGTOP
 10
0.0
 20
0.0
 30
0.0
  9
$UCSORGBOTTOM
 10
0.0
 20
0.0
 30
0.0
  9
$UCSORGLEFT
 10
0.0
 20
0.0
 30
0.0
  9
$UCSORGRIGHT
 10
0.0
 20
0.0
 30
0.0
  9
$UCSORGFRONT
 10
0.0
 20
0.0
 30
0.0
  9
$UCSORGBACK
 10
0.0
 20
0.0
 30
0.0
  9
$PUCSBASE
  2

  9
$PUCSNAME
  2

  9
$PUCSORG
 10
0.0
 20
0.0
 30
0.0
  9
$PUCSXDIR
 10
1.0
 20
0.0
 30
0.0
  9
$PUCSYDIR
 10
0.0
 20
1.0
 30
0.0
  9
$PUCSORTHOREF
  2

  9
$PUCSORTHOVIEW
 70
     0
  9
$PUCSORGTOP
 10
0.0
 20
0.0
 30
0.0
  9
$PUCSORGBOTTOM
 10
0.0
 20
0.0
 30
0.0
  9
$PUCSORGLEFT
 10
0.0
 20
0.0
 30
0.0
  9
$PUCSORGRIGHT
 10
0.0
 20
0.0
 30
0.0
  9
$PUCSORGFRONT
 10
0.0
 20
0.0
 30
0.0
  9
$PUCSORGBACK
 10
0.0
 20
0.0
 30
0.0
  9
$USERI1
 70
     0
  9
$USERI2
 70
     0
  9
$USERI3
 70
     0
  9
$USERI4
 70
     0
  9
$USERI5
 70
     0
  9
$USERR1
 40
0.0
  9
$USERR2
 40
0.0
  9
$USERR3
 40
0.0
  9
$USERR4
 40
0.0
  9
$USERR5
 40
0.0
  9
$WORLDVIEW
 70
     1
  9
$SHADEDGE
 70
     3
  9
$SHADEDIF
 70
    70
  9
$TILEMODE
 70
     1
  9
$MAXACTVP
 70
    64
  9
$PINSBASE
 10
0.0
 20
0.0
 30
0.0
  9
$PLIMCHECK
 70
     0
  9
$PEXTMIN
 10
1.000000000000000E+20
 20
1.000000000000000E+20
 30
1.000000000000000E+20
  9
$PEXTMAX
 10
-1.000000000000000E+20
 20
-1.000000000000000E+20
 30
-1.000000000000000E+20
  9
$PLIMMIN
 10
0.0
 20
0.0
  9
$PLIMMAX
 10
12.0
 20
9.0
  9
$UNITMODE
 70
     0
  9
$VISRETAIN
 70
     1
  9
$PLINEGEN
 70
     0
  9
$PSLTSCALE
 70
     1
  9
$TREEDEPTH
 70
  3020
  9
$CMLSTYLE
  2
Standard
  9
$CMLJUST
 70
     0
  9
$CMLSCALE
 40
1.0
  9
$PROXYGRAPHICS
 70
     1
  9
$MEASUREMENT
 70
     0
  9
$CELWEIGHT
370
    -1
  9
$ENDCAPS
280
     0
  9
$JOINSTYLE
280
     0
  9
$LWDISPLAY
290
     0
  9
$INSUNITS
 70
     0
  9
$HYPERLINKBASE
  1

  9
$STYLESHEET
  1

  9
$XEDIT
290
     1
  9
$CEPSNTYPE
380
     0
  9
$PSTYLEMODE
290
     1
  9
$FINGERPRINTGUID
  2
{639EAAE8-AEF1-4751-84E1-2A6208D8B038}
  9
$VERSIONGUID
  2
{E372479A-65DC-41CC-880A-984EA2ADF487}
  9
$EXTNAMES
290
     1
  9
$PSVPSCALE
 40
0.0
  9
$OLESTARTUP
290
     0
  0
ENDSEC
  0
SECTION
  2
CLASSES
  0
CLASS
  1
ACDBDICTIONARYWDFLT
  2
AcDbDictionaryWithDefault
  3
ObjectDBX Classes
 90
        0
280
     0
281
     0
  0
CLASS
  1
MATERIAL
  2
AcDbMaterial
  3
ObjectDBX Classes
 90
     1153
280
     0
281
     0
  0
CLASS
  1
VISUALSTYLE
  2
AcDbVisualStyle
  3
ObjectDBX Classes
 90
     4095
280
     0
281
     0
  0
CLASS
  1
SCALE
  2
AcDbScale
  3
ObjectDBX Classes
 90
     1153
280
     0
281
     0
  0
CLASS
  1
TABLESTYLE
  2
AcDbTableStyle
  3
ObjectDBX Classes
 90
     4095
280
     0
281
     0
  0
CLASS
  1
MLEADERSTYLE
  2
AcDbMLeaderStyle
  3
ACDB_MLEADERSTYLE_CLASS
 90
     4095
280
     0
281
     0
  0
CLASS
  1
SORTENTSTABLE
  2
AcDbSortentsTable
  3
ObjectDBX Classes
 90
        0
280
     0
281
     0
  0
CLASS
  1
DICTIONARYVAR
  2
AcDbDictionaryVar
  3
ObjectDBX Classes
 90
        0
280
     0
281
     0
  0
CLASS
  1
CELLSTYLEMAP
  2
AcDbCellStyleMap
  3
ObjectDBX Classes
 90
     1152
280
     0
281
     0
  0
CLASS
  1
ACDBPLACEHOLDER
  2
AcDbPlaceHolder
  3
ObjectDBX Classes
 90
        0
280
     0
281
     0
  0
CLASS
  1
LAYOUT
  2
AcDbLayout
  3
ObjectDBX Classes
 90
        0
280
     0
281
     0
  0
ENDSEC
  0
SECTION
  2
TABLES
  0
TABLE
  2
VPORT
  5
8
330
0
100
AcDbSymbolTable
 70
     1
  0
VPORT
  5
8B
330
8
100
AcDbSymbolTableRecord
100
AcDbViewportTableRecord
  2
*Active
 70
     0
 10
0.0
 20
0.0
 11
1.0
 21
1.0
 12
2091.227466121092
 22
423.9519574215384
 13
0.0
 23
0.0
 14
1.0
 24
1.0
 15
0.0
 25
0.0
 16
0.0
 26
0.0
 36
1.0
 17
0.0
 27
0.0
 37
0.0
 40
567.2770879548777
 41
1.296987087517933
 42
50.0
 43
0.0
 44
0.0
 50
0.0
 51
0.0
 71
     0
 72
   100
 73
     1
 74
     1
 75
     0
 76
     0
 77
     0
 78
     0
281
     0
 65
     1
110
0.0
120
0.0
130
0.0
111
1.0
121
0.0
131
0.0
112
0.0
122
1.0
132
0.0
 79
     0
146
0.0
  0
ENDTAB
  0
TABLE
  2
LTYPE
  5
5
330
0
100
AcDbSymbolTable
 70
     3
  0
LTYPE
  5
5A
330
5
100
AcDbSymbolTableRecord
100
AcDbLinetypeTableRecord
  2
ByBlock
 70
     0
  3

 72
    65
 73
     0
 40
0.0
  0
LTYPE
  5
5B
330
5
100
AcDbSymbolTableRecord
100
AcDbLinetypeTableRecord
  2
ByLayer
 70
     0
  3

 72
    65
 73
     0
 40
0.0
  0
LTYPE
  5
5C
330
5
100
AcDbSymbolTableRecord
100
AcDbLinetypeTableRecord
  2
CONTINUOUS
 70
     0
  3
Solid-line
 72
    65
 73
     0
 40
0.0
  0
LTYPE
  5
72
330
5
100
AcDbSymbolTableRecord
100
AcDbLinetypeTableRecord
  2
CENTER
 70
     0
  3
CENTER
 72
    65
 73
     4
 40
2.0
 49
1.25
 74
     0
 49
-0.25
 74
     0
 49
0.25
 74
     0
 49
-0.25
 74
     0
  0
ENDTAB
  0
TABLE
  2
LAYER
  5
2
102
{ACAD_XDICTIONARY
360
39D
102
}
330
0
100
AcDbSymbolTable
 70
     2
  0
LAYER
  5
54
102
{ACAD_XDICTIONARY
360
508
102
}
330
2
100
AcDbSymbolTableRecord
100
AcDbLayerTableRecord
  2
0
 70
     0
 62
     7
  6
CONTINUOUS
370
    -3
390
F
  0
LAYER
  5
2B3
330
2
100
AcDbSymbolTableRecord
100
AcDbLayerTableRecord
  2
Defpoints
 70
     0
 62
     7
  6
CONTINUOUS
290
     0
370
    -3
390
F
  0
ENDTAB
  0
TABLE
  2
STYLE
  5
3
330
0
100
AcDbSymbolTable
 70
     6
  0
STYLE
  5
55
330
3
100
AcDbSymbolTableRecord
100
AcDbTextStyleTableRecord
  2
STANDARD
 70
     0
 40
0.0
 41
1.0
 50
0.0
 71
     0
 42
0.2
  3
TXT
  4
BIGFONT
  0
STYLE
  5
389
330
3
100
AcDbSymbolTableRecord
100
AcDbTextStyleTableRecord
  2
高3.2
 70
     0
 40
3.2
 41
1.0
 50
0.0
 71
     0
 42
3.2
  3
txt.shx
  4
bigfont.shx
  0
STYLE
  5
38A
330
3
100
AcDbSymbolTableRecord
100
AcDbTextStyleTableRecord
  2
高6.3
 70
     0
 40
6.299999999999998
 41
1.0
 50
0.0
 71
     0
 42
6.299999999999998
  3
txt.shx
  4
bigfont.shx
  0
STYLE
  5
38B
330
3
100
AcDbSymbolTableRecord
100
AcDbTextStyleTableRecord
  2
高2.5
 70
     0
 40
2.5
 41
1.0
 50
0.0
 71
     0
 42
0.2
  3
txt.shx
  4
bigfont.shx
  0
STYLE
  5
38C
330
3
100
AcDbSymbolTableRecord
100
AcDbTextStyleTableRecord
  2
高4.5
 70
     0
 40
4.5
 41
1.0
 50
0.0
 71
     0
 42
6.299999999999998
  3
txt.shx
  4
bigfont.shx
  0
STYLE
  5
38D
330
3
100
AcDbSymbolTableRecord
100
AcDbTextStyleTableRecord
  2
高2
 70
     0
 40
2.0
 41
1.0
 50
0.0
 71
     0
 42
2.0
  3
txt.shx
  4
bigfont.shx
  0
ENDTAB
  0
TABLE
  2
VIEW
  5
6
330
0
100
AcDbSymbolTable
 70
     0
  0
ENDTAB
  0
TABLE
  2
UCS
  5
7
330
0
100
AcDbSymbolTable
 70
     0
  0
ENDTAB
  0
TABLE
  2
APPID
  5
9
330
0
100
AcDbSymbolTable
 70
    10
  0
APPID
  5
56
330
9
100
AcDbSymbolTableRecord
100
AcDbRegAppTableRecord
  2
ACAD
 70
     0
  0
APPID
  5
5D
330
9
100
AcDbSymbolTableRecord
100
AcDbRegAppTableRecord
  2
AcadAnnotative
 70
     0
  0
APPID
  5
398
330
9
100
AcDbSymbolTableRecord
100
AcDbRegAppTableRecord
  2
ACAD_DSTYLE_DIMJOGGED_JOGANGLE_SYMBOL
 70
     0
  0
APPID
  5
399
330
9
100
AcDbSymbolTableRecord
100
AcDbRegAppTableRecord
  2
ACAD_DSTYLE_DIMJAG
 70
     0
  0
APPID
  5
39A
330
9
100
AcDbSymbolTableRecord
100
AcDbRegAppTableRecord
  2
ACAD_DSTYLE_DIMBREAK
 70
     0
  0
APPID
  5
39B
330
9
100
AcDbSymbolTableRecord
100
AcDbRegAppTableRecord
  2
ACAD_DSTYLE_DIMTALN
 70
     0
  0
APPID
  5
4F7
330
9
100
AcDbSymbolTableRecord
100
AcDbRegAppTableRecord
  2
ACAD_EXEMPT_FROM_CAD_STANDARDS
 70
     0
  0
APPID
  5
54C
330
9
100
AcDbSymbolTableRecord
100
AcDbRegAppTableRecord
  2
ACAD_MLEADERVER
 70
     0
  0
APPID
  5
551
330
9
100
AcDbSymbolTableRecord
100
AcDbRegAppTableRecord
  2
ACAD_DSTYLE_DIMARC_LENGTH_SYMBOL
 70
     0
  0
APPID
  5
552
330
9
100
AcDbSymbolTableRecord
100
AcDbRegAppTableRecord
  2
ACAD_DSTYLE_DIMEXT_LENGTH
 70
     0
  0
ENDTAB
  0
TABLE
  2
DIMSTYLE
  5
A
330
0
100
AcDbSymbolTable
 70
    11
100
AcDbDimStyleTable
 71
     2
340
57
340
38E
  0
DIMSTYLE
105
57
330
A
100
AcDbSymbolTableRecord
100
AcDbDimStyleTableRecord
  2
Standard
 70
     0
340
55
  0
DIMSTYLE
105
38E
330
A
100
AcDbSymbolTableRecord
100
AcDbDimStyleTableRecord
  2
1：1
 70
     0
 41
2.5
 42
0.25
 43
0.2
 44
1.25
 73
     0
 74
     0
 77
     3
 78
     8
 79
     2
140
3.0
141
0.0
143
0.03937007874016
147
0.625
171
     3
172
     1
178
     4
179
     1
271
     2
272
     2
274
     3
283
     0
284
     8
288
     1
289
     0
340
55
341
2F9
342
2F9
1001
ACAD_DSTYLE_DIMARC_LENGTH_SYMBOL
1070
   379
1070
     2
1001
ACAD_DSTYLE_DIMEXT_LENGTH
1070
   378
1040
1.25
1001
ACAD_DSTYLE_DIMJOGGED_JOGANGLE_SYMBOL
1070
   384
1040
1.570796326794896
  0
DIMSTYLE
105
5FF
330
A
100
AcDbSymbolTableRecord
100
AcDbDimStyleTableRecord
  2
2：1
 70
     0
 41
2.5
 42
0.25
 43
0.2
 44
1.25
 73
     0
 74
     0
 77
     3
 78
     8
 79
     2
140
3.0
141
0.0
143
0.03937007874016
144
0.5
147
0.625
171
     3
172
     1
178
     4
179
     1
271
     2
272
     2
274
     3
283
     0
284
     8
288
     1
289
     0
340
55
341
2F9
342
2F9
1001
ACAD_DSTYLE_DIMARC_LENGTH_SYMBOL
1070
   379
1070
     2
1001
ACAD_DSTYLE_DIMEXT_LENGTH
1070
   378
1040
1.25
1001
ACAD_DSTYLE_DIMJOGGED_JOGANGLE_SYMBOL
1070
   384
1040
1.570796326794896
  0
DIMSTYLE
105
600
330
A
100
AcDbSymbolTableRecord
100
AcDbDimStyleTableRecord
  2
5：1
 70
     0
 41
2.5
 42
0.25
 43
0.2
 44
1.25
 73
     0
 74
     0
 77
     3
 78
     8
 79
     2
140
3.0
141
0.0
143
0.03937007874016
144
0.2
147
0.625
171
     3
172
     1
178
     4
179
     1
271
     2
272
     2
274
     3
283
     0
284
     8
288
     1
289
     0
340
55
341
2F9
342
2F9
1001
ACAD_DSTYLE_DIMARC_LENGTH_SYMBOL
1070
   379
1070
     2
1001
ACAD_DSTYLE_DIMEXT_LENGTH
1070
   378
1040
1.25
1001
ACAD_DSTYLE_DIMJOGGED_JOGANGLE_SYMBOL
1070
   384
1040
1.570796326794896
  0
DIMSTYLE
105
601
330
A
100
AcDbSymbolTableRecord
100
AcDbDimStyleTableRecord
  2
10：1
 70
     0
 41
2.5
 42
0.25
 43
0.2
 44
1.25
 73
     0
 74
     0
 77
     3
 78
     8
 79
     2
140
3.0
141
0.0
143
0.03937007874016
144
0.1
147
0.625
171
     3
172
     1
178
     4
179
     1
271
     2
272
     2
274
     3
283
     0
284
     8
288
     1
289
     0
340
55
341
2F9
342
2F9
1001
ACAD_DSTYLE_DIMARC_LENGTH_SYMBOL
1070
   379
1070
     2
1001
ACAD_DSTYLE_DIMEXT_LENGTH
1070
   378
1040
1.25
1001
ACAD_DSTYLE_DIMJOGGED_JOGANGLE_SYMBOL
1070
   384
1040
1.570796326794896
  0
DIMSTYLE
105
602
330
A
100
AcDbSymbolTableRecord
100
AcDbDimStyleTableRecord
  2
1／2
 70
     0
 41
2.5
 42
0.25
 43
0.2
 44
1.25
 73
     0
 74
     0
 77
     3
 78
     8
 79
     2
140
3.0
141
0.0
143
0.03937007874016
144
2.0
147
0.625
171
     3
172
     1
178
     4
179
     1
271
     2
272
     2
274
     3
283
     0
284
     8
288
     1
289
     0
340
55
341
2F9
342
2F9
1001
ACAD_DSTYLE_DIMARC_LENGTH_SYMBOL
1070
   379
1070
     2
1001
ACAD_DSTYLE_DIMEXT_LENGTH
1070
   378
1040
1.25
1001
ACAD_DSTYLE_DIMJOGGED_JOGANGLE_SYMBOL
1070
   384
1040
1.570796326794896
  0
DIMSTYLE
105
603
330
A
100
AcDbSymbolTableRecord
100
AcDbDimStyleTableRecord
  2
1／5
 70
     0
 41
2.5
 42
0.25
 43
0.2
 44
1.25
 73
     0
 74
     0
 77
     3
 78
     8
 79
     2
140
3.0
141
0.0
143
0.03937007874016
144
5.0
147
0.625
171
     3
172
     1
178
     4
179
     1
271
     2
272
     2
274
     3
283
     0
284
     8
288
     1
289
     0
340
55
341
2F9
342
2F9
1001
ACAD_DSTYLE_DIMARC_LENGTH_SYMBOL
1070
   379
1070
     2
1001
ACAD_DSTYLE_DIMEXT_LENGTH
1070
   378
1040
1.25
1001
ACAD_DSTYLE_DIMJOGGED_JOGANGLE_SYMBOL
1070
   384
1040
1.570796326794896
  0
DIMSTYLE
105
604
330
A
100
AcDbSymbolTableRecord
100
AcDbDimStyleTableRecord
  2
1／10
 70
     0
 41
2.5
 42
0.25
 43
0.2
 44
1.25
 73
     0
 74
     0
 77
     3
 78
     8
 79
     2
140
3.0
141
0.0
143
0.03937007874016
144
10.0
147
0.625
171
     3
172
     1
178
     4
179
     1
271
     2
272
     2
274
     3
283
     0
284
     8
288
     1
289
     0
340
55
341
2F9
342
2F9
1001
ACAD_DSTYLE_DIMARC_LENGTH_SYMBOL
1070
   379
1070
     2
1001
ACAD_DSTYLE_DIMEXT_LENGTH
1070
   378
1040
1.25
1001
ACAD_DSTYLE_DIMJOGGED_JOGANGLE_SYMBOL
1070
   384
1040
1.570796326794896
  0
DIMSTYLE
105
605
330
A
100
AcDbSymbolTableRecord
100
AcDbDimStyleTableRecord
  2
1／4
 70
     0
 41
2.5
 42
0.25
 43
0.2
 44
1.25
 73
     0
 74
     0
 77
     3
 78
     8
 79
     2
140
3.0
141
0.0
143
0.03937007874016
144
4.0
147
0.625
171
     3
172
     1
178
     4
179
     1
271
     2
272
     2
274
     3
283
     0
284
     8
288
     1
289
     0
340
55
341
2F9
342
2F9
1001
ACAD_DSTYLE_DIMARC_LENGTH_SYMBOL
1070
   379
1070
     2
1001
ACAD_DSTYLE_DIMEXT_LENGTH
1070
   378
1040
1.25
1001
ACAD_DSTYLE_DIMJOGGED_JOGANGLE_SYMBOL
1070
   384
1040
1.570796326794896
  0
DIMSTYLE
105
606
330
A
100
AcDbSymbolTableRecord
100
AcDbDimStyleTableRecord
  2
1／3
 70
     0
 41
2.5
 42
0.25
 43
0.2
 44
1.25
 73
     0
 74
     0
 77
     3
 78
     8
 79
     2
140
3.0
141
0.0
143
0.03937007874016
144
3.0
147
0.625
171
     3
172
     1
178
     4
179
     1
271
     2
272
     2
274
     3
283
     0
284
     8
288
     1
289
     0
340
55
341
2F9
342
2F9
1001
ACAD_DSTYLE_DIMARC_LENGTH_SYMBOL
1070
   379
1070
     2
1001
ACAD_DSTYLE_DIMEXT_LENGTH
1070
   378
1040
1.25
1001
ACAD_DSTYLE_DIMJOGGED_JOGANGLE_SYMBOL
1070
   384
1040
1.570796326794896
  0
DIMSTYLE
105
607
330
A
100
AcDbSymbolTableRecord
100
AcDbDimStyleTableRecord
  2
FREE
 70
     0
 41
2.5
 42
0.25
 43
0.2
 44
1.25
 73
     0
 74
     0
 77
     3
 78
     8
 79
     2
140
3.0
141
0.0
143
0.03937007874016
147
0.625
171
     3
172
     1
178
     4
179
     1
271
     2
272
     2
274
     3
283
     0
284
     8
288
     1
289
     0
340
55
341
2F9
342
2F9
1001
ACAD_DSTYLE_DIMBREAK
1070
   391
1040
3.75
1001
ACAD_DSTYLE_DIMJAG
1070
   388
1040
1.5
1001
ACAD_DSTYLE_DIMTALN
1070
   392
1070
     0
1001
ACAD_DSTYLE_DIMARC_LENGTH_SYMBOL
1070
   379
1070
     2
1001
ACAD_DSTYLE_DIMEXT_LENGTH
1070
   378
1040
1.25
1001
ACAD_DSTYLE_DIMJOGGED_JOGANGLE_SYMBOL
1070
   384
1040
1.570796326794896
  0
ENDTAB
  0
TABLE
  2
BLOCK_RECORD
  5
1
330
0
100
AcDbSymbolTable
 70
    14
  0
BLOCK_RECORD
  5
6B
102
{ACAD_XDICTIONARY
360
841
102
}
330
1
100
AcDbSymbolTableRecord
100
AcDbBlockTableRecord
  2
*Model_Space
340
6E
  0
BLOCK_RECORD
  5
67
330
1
100
AcDbSymbolTableRecord
100
AcDbBlockTableRecord
  2
*Paper_Space
340
6A
  0
BLOCK_RECORD
  5
2F9
330
1
100
AcDbSymbolTableRecord
100
AcDbBlockTableRecord
  2
_Open30
340
0
102
{BLKREFS
331
6E1
331
6E2
331
6EC
331
6ED
331
6F7
331
6F8
331
702
331
703
331
70D
331
70E
331
718
331
719
331
723
331
724
331
72E
331
72F
331
739
331
73A
331
742
331
743
331
7A9
331
7AA
331
7B2
331
7B3
331
7BB
331
7BC
102
}
  0
BLOCK_RECORD
  5
4CA
330
1
100
AcDbSymbolTableRecord
100
AcDbBlockTableRecord
  2
*D1
340
0
  0
BLOCK_RECORD
  5
4D6
330
1
100
AcDbSymbolTableRecord
100
AcDbBlockTableRecord
  2
*D2
340
0
  0
BLOCK_RECORD
  5
4E2
330
1
100
AcDbSymbolTableRecord
100
AcDbBlockTableRecord
  2
*D3
340
0
  0
BLOCK_RECORD
  5
652
330
1
100
AcDbSymbolTableRecord
100
AcDbBlockTableRecord
  2
*D4
340
0
  0
BLOCK_RECORD
  5
660
330
1
100
AcDbSymbolTableRecord
100
AcDbBlockTableRecord
  2
*D5
340
0
  0
BLOCK_RECORD
  5
66E
330
1
100
AcDbSymbolTableRecord
100
AcDbBlockTableRecord
  2
*D6
340
0
  0
BLOCK_RECORD
  5
67C
330
1
100
AcDbSymbolTableRecord
100
AcDbBlockTableRecord
  2
*D7
340
0
  0
BLOCK_RECORD
  5
68A
330
1
100
AcDbSymbolTableRecord
100
AcDbBlockTableRecord
  2
*D8
340
0
  0
BLOCK_RECORD
  5
698
330
1
100
AcDbSymbolTableRecord
100
AcDbBlockTableRecord
  2
*D9
340
0
  0
BLOCK_RECORD
  5
6A6
330
1
100
AcDbSymbolTableRecord
100
AcDbBlockTableRecord
  2
*D10
340
0
  0
BLOCK_RECORD
  5
6B4
330
1
100
AcDbSymbolTableRecord
100
AcDbBlockTableRecord
  2
*D11
340
0
  0
BLOCK_RECORD
  5
6C2
330
1
100
AcDbSymbolTableRecord
100
AcDbBlockTableRecord
  2
*D12
340
0
  0
BLOCK_RECORD
  5
6D0
330
1
100
AcDbSymbolTableRecord
100
AcDbBlockTableRecord
  2
*D13
340
0
  0
ENDTAB
  0
ENDSEC
  0
SECTION
  2
BLOCKS
  0
BLOCK
  5
6C
330
6B
100
AcDbEntity
  8
0
100
AcDbBlockBegin
  2
*Model_Space
 70
     0
 10
0.0
 20
0.0
 30
0.0
  3
*Model_Space
  1

  0
ENDBLK
  5
6D
330
6B
100
AcDbEntity
  8
0
100
AcDbBlockEnd
  0
BLOCK
  5
68
330
67
100
AcDbEntity
 67
     1
  8
0
100
AcDbBlockBegin
  2
*Paper_Space
 70
     0
 10
0.0
 20
0.0
 30
0.0
  3
*Paper_Space
  1

  0
ENDBLK
  5
69
330
67
100
AcDbEntity
 67
     1
  8
0
100
AcDbBlockEnd
  0
BLOCK
  5
2FA
330
2F9
100
AcDbEntity
  8
0
100
AcDbBlockBegin
  2
_Open30
 70
     0
 10
0.0
 20
0.0
 30
0.0
  3
_Open30
  1

  0
LINE
  5
2FB
330
2F9
100
AcDbEntity
  8
0
  6
ByBlock
 62
     0
370
    -2
100
AcDbLine
 10
-1.0
 20
0.267949
 30
0.0
 11
0.0
 21
0.0
 31
0.0
  0
LINE
  5
2FC
330
2F9
100
AcDbEntity
  8
0
  6
ByBlock
 62
     0
370
    -2
100
AcDbLine
 10
0.0
 20
0.0
 30
0.0
 11
-1.0
 21
-0.267949
 31
0.0
  0
LINE
  5
2FD
330
2F9
100
AcDbEntity
  8
0
  6
ByBlock
 62
     0
370
    -2
100
AcDbLine
 10
0.0
 20
0.0
 30
0.0
 11
-1.0
 21
0.0
 31
0.0
  0
ENDBLK
  5
2FE
330
2F9
100
AcDbEntity
  8
0
100
AcDbBlockEnd
  0
BLOCK
  5
4CB
330
4CA
100
AcDbEntity
  8
0
100
AcDbBlockBegin
  2
*D1
 70
     1
 10
0.0
 20
0.0
 30
0.0
  3
*D1
  1

  0
LINE
  5
7A6
330
4CA
100
AcDbEntity
  8
0
 62
     0
370
    -2
100
AcDbLine
 10
1961.345503
 20
428.96139
 30
0.0
 11
1961.345503
 21
494.927415
 31
0.0
  0
LINE
  5
7A7
330
4CA
100
AcDbEntity
  8
0
 62
     0
370
    -2
100
AcDbLine
 10
2016.345503
 20
428.96139
 30
0.0
 11
2016.345503
 21
494.927415
 31
0.0
  0
LINE
  5
7A8
330
4CA
100
AcDbEntity
  8
0
 62
     0
370
    -2
100
AcDbLine
 10
1963.845503
 20
493.677415
 30
0.0
 11
2013.845503
 21
493.677415
 31
0.0
  0
INSERT
  5
7A9
330
4CA
100
AcDbEntity
  8
0
 62
     0
370
    -2
100
AcDbBlockReference
  2
_Open30
 10
1961.345503
 20
493.677415
 30
0.0
 41
2.5
 42
2.5
 43
2.5
 50
180.0
  0
INSERT
  5
7AA
330
4CA
100
AcDbEntity
  8
0
 62
     0
370
    -2
100
AcDbBlockReference
  2
_Open30
 10
2016.345503
 20
493.677415
 30
0.0
 41
2.5
 42
2.5
 43
2.5
  0
MTEXT
  5
7AB
330
4CA
100
AcDbEntity
  8
0
 62
     4
100
AcDbMText
 10
1988.845503
 20
495.802415
 30
0.0
 40
3.0
 41
0.0
 71
     5
 72
     1
  1
55
 73
     1
 44
1.0
1001
ACAD
1000
MTEXTBEGIN
1070
    73
1070
     1
1070
    44
1040
1.0
1070
    74
1070
     0
1000
MTEXTEND
  0
POINT
  5
7AC
330
4CA
100
AcDbEntity
  8
Defpoints
 62
     0
100
AcDbPoint
 10
1961.345503
 20
428.71139
 30
0.0
  0
POINT
  5
7AD
330
4CA
100
AcDbEntity
  8
Defpoints
 62
     0
100
AcDbPoint
 10
2016.345503
 20
428.71139
 30
0.0
  0
POINT
  5
7AE
330
4CA
100
AcDbEntity
  8
Defpoints
 62
     0
100
AcDbPoint
 10
2016.345503
 20
493.677415
 30
0.0
  0
ENDBLK
  5
4CC
330
4CA
100
AcDbEntity
  8
0
100
AcDbBlockEnd
  0
BLOCK
  5
4D7
330
4D6
100
AcDbEntity
  8
0
100
AcDbBlockBegin
  2
*D2
 70
     1
 10
0.0
 20
0.0
 30
0.0
  3
*D2
  1

  0
LINE
  5
7AF
330
4D6
100
AcDbEntity
  8
0
 62
     0
370
    -2
100
AcDbLine
 10
1988.595503
 20
341.832211
 30
0.0
 11
1946.309031
 21
341.832211
 31
0.0
  0
LINE
  5
7B0
330
4D6
100
AcDbEntity
  8
0
 62
     0
370
    -2
100
AcDbLine
 10
1988.595503
 20
475.832211
 30
0.0
 11
1946.309031
 21
475.832211
 31
0.0
  0
LINE
  5
7B1
330
4D6
100
AcDbEntity
  8
0
 62
     0
370
    -2
100
AcDbLine
 10
1947.559031
 20
344.332211
 30
0.0
 11
1947.559031
 21
473.332211
 31
0.0
  0
INSERT
  5
7B2
330
4D6
100
AcDbEntity
  8
0
 62
     0
370
    -2
100
AcDbBlockReference
  2
_Open30
 10
1947.559031
 20
341.832211
 30
0.0
 41
2.5
 42
2.5
 43
2.5
 50
270.0
  0
INSERT
  5
7B3
330
4D6
100
AcDbEntity
  8
0
 62
     0
370
    -2
100
AcDbBlockReference
  2
_Open30
 10
1947.559031
 20
475.832211
 30
0.0
 41
2.5
 42
2.5
 43
2.5
 50
90.0
  0
MTEXT
  5
7B4
330
4D6
100
AcDbEntity
  8
0
 62
     4
100
AcDbMText
 10
1945.434031
 20
408.8322110000003
 30
0.0
 40
3.0
 41
0.0
 71
     5
 72
     1
  1
134
 11
0.0000000000000001
 21
1.0
 31
0.0
 73
     1
 44
1.0
1001
ACAD
1000
MTEXTBEGIN
1070
    73
1070
     1
1070
    44
1040
1.0
1070
    74
1070
     0
1000
MTEXTEND
  0
POINT
  5
7B5
330
4D6
100
AcDbEntity
  8
Defpoints
 62
     0
100
AcDbPoint
 10
1988.845503
 20
341.832211
 30
0.0
  0
POINT
  5
7B6
330
4D6
100
AcDbEntity
  8
Defpoints
 62
     0
100
AcDbPoint
 10
1988.845503
 20
475.832211
 30
0.0
  0
POINT
  5
7B7
330
4D6
100
AcDbEntity
  8
Defpoints
 62
     0
100
AcDbPoint
 10
1947.559031
 20
475.832211
 30
0.0
  0
ENDBLK
  5
4D8
330
4D6
100
AcDbEntity
  8
0
100
AcDbBlockEnd
  0
BLOCK
  5
4E3
330
4E2
100
AcDbEntity
  8
0
100
AcDbBlockBegin
  2
*D3
 70
     1
 10
0.0
 20
0.0
 30
0.0
  3
*D3
  1

  0
LINE
  5
7B8
330
4E2
100
AcDbEntity
  8
0
 62
     0
370
    -2
100
AcDbLine
 10
1975.851521
 20
348.462594
 30
0.0
 11
1975.851521
 21
329.266152
 31
0.0
  0
LINE
  5
7B9
330
4E2
100
AcDbEntity
  8
0
 62
     0
370
    -2
100
AcDbLine
 10
2001.84389
 20
350.462594
 30
0.0
 11
2001.84389
 21
329.266152
 31
0.0
  0
LINE
  5
7BA
330
4E2
100
AcDbEntity
  8
0
 62
     0
370
    -2
100
AcDbLine
 10
1978.351521
 20
330.516152
 30
0.0
 11
1999.34389
 21
330.516152
 31
0.0
  0
INSERT
  5
7BB
330
4E2
100
AcDbEntity
  8
0
 62
     0
370
    -2
100
AcDbBlockReference
  2
_Open30
 10
1975.851521
 20
330.516152
 30
0.0
 41
2.5
 42
2.5
 43
2.5
 50
180.0
  0
INSERT
  5
7BC
330
4E2
100
AcDbEntity
  8
0
 62
     0
370
    -2
100
AcDbBlockReference
  2
_Open30
 10
2001.84389
 20
330.516152
 30
0.0
 41
2.5
 42
2.5
 43
2.5
  0
MTEXT
  5
7BD
330
4E2
100
AcDbEntity
  8
0
 62
     4
100
AcDbMText
 10
1988.8477055
 20
332.641152
 30
0.0
 40
3.0
 41
0.0
 71
     5
 72
     1
  1
E26
 73
     1
 44
1.0
1001
ACAD
1000
MTEXTBEGIN
1070
    73
1070
     1
1070
    44
1040
1.0
1070
    74
1070
     0
1000
MTEXTEND
  0
POINT
  5
7BE
330
4E2
100
AcDbEntity
  8
Defpoints
 62
     0
100
AcDbPoint
 10
1975.851521
 20
348.712594
 30
0.0
  0
POINT
  5
7BF
330
4E2
100
AcDbEntity
  8
Defpoints
 62
     0
100
AcDbPoint
 10
2001.84389
 20
350.712594
 30
0.0
  0
POINT
  5
7C0
330
4E2
100
AcDbEntity
  8
Defpoints
 62
     0
100
AcDbPoint
 10
2001.84389
 20
330.516152
 30
0.0
  0
ENDBLK
  5
4E4
330
4E2
100
AcDbEntity
  8
0
100
AcDbBlockEnd
  0
BLOCK
  5
653
330
652
100
AcDbEntity
  8
0
100
AcDbBlockBegin
  2
*D4
 70
     1
 10
0.0
 20
0.0
 30
0.0
  3
*D4
  1

  0
LINE
  5
6DC
330
652
100
AcDbEntity
  8
0
 62
     0
370
    -2
100
AcDbLine
 10
2578.037849957504
 20
523.0718261325908
 30
0.0
 11
2578.037849957504
 21
520.1621947105819
 31
0.0
  0
LINE
  5
6DD
330
652
100
AcDbEntity
  8
0
 62
     0
370
    -2
100
AcDbLine
 10
2575.580662903382
 20
523.0718261325908
 30
0.0
 11
2575.580662903382
 21
520.1621947105819
 31
0.0
  0
LINE
  5
6DE
330
652
100
AcDbEntity
  8
0
 62
     0
370
    -2
100
AcDbLine
 10
2580.537849957503
 20
521.4121947105819
 30
0.0
 11
2583.037849957503
 21
521.4121947105819
 31
0.0
  0
LINE
  5
6DF
330
652
100
AcDbEntity
  8
0
 62
     0
370
    -2
100
AcDbLine
 10
2573.080662903382
 20
521.4121947105819
 30
0.0
 11
2560.330662903382
 21
521.4121947105819
 31
0.0
  0
LINE
  5
6E0
330
652
100
AcDbEntity
  8
0
 62
     0
370
    -2
100
AcDbLine
 10
2578.037849957504
 20
521.4121947105819
 30
0.0
 11
2575.580662903382
 21
521.4121947105819
 31
0.0
  0
INSERT
  5
6E1
330
652
100
AcDbEntity
  8
0
 62
     0
370
    -2
100
AcDbBlockReference
  2
_Open30
 10
2578.037849957504
 20
521.4121947105819
 30
0.0
 41
2.5
 42
2.5
 43
2.5
 50
180.0
  0
INSERT
  5
6E2
330
652
100
AcDbEntity
  8
0
 62
     0
370
    -2
100
AcDbBlockReference
  2
_Open30
 10
2575.580662903382
 20
521.4121947105819
 30
0.0
 41
2.5
 42
2.5
 43
2.5
  0
MTEXT
  5
6E3
330
652
100
AcDbEntity
  8
0
 62
     4
100
AcDbMText
 10
2565.455662903382
 20
523.5371947105821
 30
0.0
 40
3.0
 41
0.0
 71
     5
 72
     1
  1
2.46
 73
     1
 44
1.0
1001
ACAD
1000
MTEXTBEGIN
1070
    73
1070
     1
1070
    44
1040
1.0
1070
    74
1070
     0
1000
MTEXTEND
  0
POINT
  5
6E4
330
652
100
AcDbEntity
  8
Defpoints
 62
     0
100
AcDbPoint
 10
2578.037849957504
 20
523.3218261325909
 30
0.0
  0
POINT
  5
6E5
330
652
100
AcDbEntity
  8
Defpoints
 62
     0
100
AcDbPoint
 10
2575.580662903382
 20
523.3218261325909
 30
0.0
  0
POINT
  5
6E6
330
652
100
AcDbEntity
  8
Defpoints
 62
     0
100
AcDbPoint
 10
2575.580662903382
 20
521.4121947105819
 30
0.0
  0
ENDBLK
  5
654
330
652
100
AcDbEntity
  8
0
100
AcDbBlockEnd
  0
BLOCK
  5
661
330
660
100
AcDbEntity
  8
0
100
AcDbBlockBegin
  2
*D5
 70
     1
 10
0.0
 20
0.0
 30
0.0
  3
*D5
  1

  0
LINE
  5
6E7
330
660
100
AcDbEntity
  8
0
 62
     0
370
    -2
100
AcDbLine
 10
2579.675974863576
 20
517.6157365598283
 30
0.0
 11
2579.675974863576
 21
515.0698444903651
 31
0.0
  0
LINE
  5
6E8
330
660
100
AcDbEntity
  8
0
 62
     0
370
    -2
100
AcDbLine
 10
2576.581739065433
 20
517.6157365598283
 30
0.0
 11
2576.581739065433
 21
515.0698444903651
 31
0.0
  0
LINE
  5
6E9
330
660
100
AcDbEntity
  8
0
 62
     0
370
    -2
100
AcDbLine
 10
2582.175974863576
 20
516.3198444903652
 30
0.0
 11
2584.675974863576
 21
516.3198444903652
 31
0.0
  0
LINE
  5
6EA
330
660
100
AcDbEntity
  8
0
 62
     0
370
    -2
100
AcDbLine
 10
2574.081739065433
 20
516.3198444903652
 30
0.0
 11
2560.2484057321
 21
516.3198444903652
 31
0.0
  0
LINE
  5
6EB
330
660
100
AcDbEntity
  8
0
 62
     0
370
    -2
100
AcDbLine
 10
2579.675974863576
 20
516.3198444903652
 30
0.0
 11
2576.581739065433
 21
516.3198444903652
 31
0.0
  0
INSERT
  5
6EC
330
660
100
AcDbEntity
  8
0
 62
     0
370
    -2
100
AcDbBlockReference
  2
_Open30
 10
2579.675974863576
 20
516.3198444903652
 30
0.0
 41
2.5
 42
2.5
 43
2.5
 50
180.0
  0
INSERT
  5
6ED
330
660
100
AcDbEntity
  8
0
 62
     0
370
    -2
100
AcDbBlockReference
  2
_Open30
 10
2576.581739065433
 20
516.3198444903652
 30
0.0
 41
2.5
 42
2.5
 43
2.5
  0
MTEXT
  5
6EE
330
660
100
AcDbEntity
  8
0
 62
     4
100
AcDbMText
 10
2565.456739065433
 20
518.1948444903651
 30
0.0
 40
2.5
 41
0.0
 71
     5
 72
     1
  1
15.47
  7
高2.5
 73
     1
 44
1.0
1001
ACAD
1000
MTEXTBEGIN
1070
    73
1070
     1
1070
    44
1040
1.0
1070
    74
1070
     0
1000
MTEXTEND
  0
POINT
  5
6EF
330
660
100
AcDbEntity
  8
Defpoints
 62
     0
100
AcDbPoint
 10
2579.675974863576
 20
517.8657365598285
 30
0.0
  0
POINT
  5
6F0
330
660
100
AcDbEntity
  8
Defpoints
 62
     0
100
AcDbPoint
 10
2576.581739065433
 20
517.8657365598285
 30
0.0
  0
POINT
  5
6F1
330
660
100
AcDbEntity
  8
Defpoints
 62
     0
100
AcDbPoint
 10
2576.581739065433
 20
516.3198444903652
 30
0.0
  0
ENDBLK
  5
662
330
660
100
AcDbEntity
  8
0
100
AcDbBlockEnd
  0
BLOCK
  5
66F
330
66E
100
AcDbEntity
  8
0
100
AcDbBlockBegin
  2
*D6
 70
     1
 10
0.0
 20
0.0
 30
0.0
  3
*D6
  1

  0
LINE
  5
6F2
330
66E
100
AcDbEntity
  8
0
 62
     0
370
    -2
100
AcDbLine
 10
2581.405106471662
 20
512.159646843982
 30
0.0
 11
2581.405106471662
 21
509.8865591816148
 31
0.0
  0
LINE
  5
6F3
330
66E
100
AcDbEntity
  8
0
 62
     0
370
    -2
100
AcDbLine
 10
2577.40080151847
 20
512.159646843982
 30
0.0
 11
2577.40080151847
 21
509.8865591816148
 31
0.0
  0
LINE
  5
6F4
330
66E
100
AcDbEntity
  8
0
 62
     0
370
    -2
100
AcDbLine
 10
2583.905106471661
 20
511.1365591816147
 30
0.0
 11
2586.405106471662
 21
511.1365591816147
 31
0.0
  0
LINE
  5
6F5
330
66E
100
AcDbEntity
  8
0
 62
     0
370
    -2
100
AcDbLine
 10
2574.90080151847
 20
511.1365591816147
 30
0.0
 11
2563.15080151847
 21
511.1365591816147
 31
0.0
  0
LINE
  5
6F6
330
66E
100
AcDbEntity
  8
0
 62
     0
370
    -2
100
AcDbLine
 10
2581.405106471662
 20
511.1365591816147
 30
0.0
 11
2577.40080151847
 21
511.1365591816147
 31
0.0
  0
INSERT
  5
6F7
330
66E
100
AcDbEntity
  8
0
 62
     0
370
    -2
100
AcDbBlockReference
  2
_Open30
 10
2581.405106471662
 20
511.1365591816147
 30
0.0
 41
2.5
 42
2.5
 43
2.5
 50
180.0
  0
INSERT
  5
6F8
330
66E
100
AcDbEntity
  8
0
 62
     0
370
    -2
100
AcDbBlockReference
  2
_Open30
 10
2577.40080151847
 20
511.1365591816147
 30
0.0
 41
2.5
 42
2.5
 43
2.5
  0
MTEXT
  5
6F9
330
66E
100
AcDbEntity
  8
0
 62
     4
100
AcDbMText
 10
2567.77580151847
 20
513.3615591816147
 30
0.0
 40
3.2
 41
0.0
 71
     5
 72
     1
  1
8.01
  7
高3.2
 73
     1
 44
1.0
1001
ACAD
1000
MTEXTBEGIN
1070
    73
1070
     1
1070
    44
1040
1.0
1070
    74
1070
     0
1000
MTEXTEND
  0
POINT
  5
6FA
330
66E
100
AcDbEntity
  8
Defpoints
 62
     0
100
AcDbPoint
 10
2581.405106471662
 20
512.409646843982
 30
0.0
  0
POINT
  5
6FB
330
66E
100
AcDbEntity
  8
Defpoints
 62
     0
100
AcDbPoint
 10
2577.40080151847
 20
512.409646843982
 30
0.0
  0
POINT
  5
6FC
330
66E
100
AcDbEntity
  8
Defpoints
 62
     0
100
AcDbPoint
 10
2577.40080151847
 20
511.1365591816147
 30
0.0
  0
ENDBLK
  5
670
330
66E
100
AcDbEntity
  8
0
100
AcDbBlockEnd
  0
BLOCK
  5
67D
330
67C
100
AcDbEntity
  8
0
100
AcDbBlockBegin
  2
*D7
 70
     1
 10
0.0
 20
0.0
 30
0.0
  3
*D7
  1

  0
LINE
  5
6FD
330
67C
100
AcDbEntity
  8
0
 62
     0
370
    -2
100
AcDbLine
 10
2581.314099769649
 20
506.8854268759503
 30
0.0
 11
2581.314099769649
 21
505.067013368494
 31
0.0
  0
LINE
  5
6FE
330
67C
100
AcDbEntity
  8
0
 62
     0
370
    -2
100
AcDbLine
 10
2576.581739065433
 20
506.8854268759503
 30
0.0
 11
2576.581739065433
 21
505.067013368494
 31
0.0
  0
LINE
  5
6FF
330
67C
100
AcDbEntity
  8
0
 62
     0
370
    -2
100
AcDbLine
 10
2583.814099769649
 20
506.317013368494
 30
0.0
 11
2586.314099769649
 21
506.317013368494
 31
0.0
  0
LINE
  5
700
330
67C
100
AcDbEntity
  8
0
 62
     0
370
    -2
100
AcDbLine
 10
2574.081739065433
 20
506.317013368494
 30
0.0
 11
2552.331739065433
 21
506.317013368494
 31
0.0
  0
LINE
  5
701
330
67C
100
AcDbEntity
  8
0
 62
     0
370
    -2
100
AcDbLine
 10
2581.314099769649
 20
506.317013368494
 30
0.0
 11
2576.581739065433
 21
506.317013368494
 31
0.0
  0
INSERT
  5
702
330
67C
100
AcDbEntity
  8
0
 62
     0
370
    -2
100
AcDbBlockReference
  2
_Open30
 10
2581.314099769649
 20
506.317013368494
 30
0.0
 41
2.5
 42
2.5
 43
2.5
 50
180.0
  0
INSERT
  5
703
330
67C
100
AcDbEntity
  8
0
 62
     0
370
    -2
100
AcDbBlockReference
  2
_Open30
 10
2576.581739065433
 20
506.317013368494
 30
0.0
 41
2.5
 42
2.5
 43
2.5
  0
MTEXT
  5
704
330
67C
100
AcDbEntity
  8
0
 62
     4
100
AcDbMText
 10
2561.956739065433
 20
509.192013368494
 30
0.0
 40
4.5
 41
0.0
 71
     5
 72
     1
  1
47.32
  7
高4.5
 73
     1
 44
1.0
1001
ACAD
1000
MTEXTBEGIN
1070
    73
1070
     1
1070
    44
1040
1.0
1070
    74
1070
     0
1000
MTEXTEND
  0
POINT
  5
705
330
67C
100
AcDbEntity
  8
Defpoints
 62
     0
100
AcDbPoint
 10
2581.314099769649
 20
507.1354268759503
 30
0.0
  0
POINT
  5
706
330
67C
100
AcDbEntity
  8
Defpoints
 62
     0
100
AcDbPoint
 10
2576.581739065433
 20
507.1354268759503
 30
0.0
  0
POINT
  5
707
330
67C
100
AcDbEntity
  8
Defpoints
 62
     0
100
AcDbPoint
 10
2576.581739065433
 20
506.317013368494
 30
0.0
  0
ENDBLK
  5
67E
330
67C
100
AcDbEntity
  8
0
100
AcDbBlockEnd
  0
BLOCK
  5
68B
330
68A
100
AcDbEntity
  8
0
100
AcDbBlockBegin
  2
*D8
 70
     1
 10
0.0
 20
0.0
 30
0.0
  3
*D8
  1

  0
LINE
  5
708
330
68A
100
AcDbEntity
  8
0
 62
     0
370
    -2
100
AcDbLine
 10
2602.791736037656
 20
523.0718261325908
 30
0.0
 11
2602.791736037656
 21
520.1621947105819
 31
0.0
  0
LINE
  5
709
330
68A
100
AcDbEntity
  8
0
 62
     0
370
    -2
100
AcDbLine
 10
2600.334548983536
 20
523.0718261325908
 30
0.0
 11
2600.334548983536
 21
520.1621947105819
 31
0.0
  0
LINE
  5
70A
330
68A
100
AcDbEntity
  8
0
 62
     0
370
    -2
100
AcDbLine
 10
2605.291736037657
 20
521.4121947105819
 30
0.0
 11
2607.791736037656
 21
521.4121947105819
 31
0.0
  0
LINE
  5
70B
330
68A
100
AcDbEntity
  8
0
 62
     0
370
    -2
100
AcDbLine
 10
2597.834548983537
 20
521.4121947105819
 30
0.0
 11
2576.234548983536
 21
521.4121947105819
 31
0.0
  0
LINE
  5
70C
330
68A
100
AcDbEntity
  8
0
 62
     0
370
    -2
100
AcDbLine
 10
2602.791736037656
 20
521.4121947105819
 30
0.0
 11
2600.334548983536
 21
521.4121947105819
 31
0.0
  0
INSERT
  5
70D
330
68A
100
AcDbEntity
  8
0
 62
     0
370
    -2
100
AcDbBlockReference
  2
_Open30
 10
2602.791736037656
 20
521.4121947105819
 30
0.0
 41
2.5
 42
2.5
 43
2.5
 50
180.0
  0
INSERT
  5
70E
330
68A
100
AcDbEntity
  8
0
 62
     0
370
    -2
100
AcDbBlockReference
  2
_Open30
 10
2600.334548983536
 20
521.4121947105819
 30
0.0
 41
2.5
 42
2.5
 43
2.5
  0
MTEXT
  5
70F
330
68A
100
AcDbEntity
  8
0
 62
     4
100
AcDbMText
 10
2585.784548983536
 20
525.1871947105819
 30
0.0
 40
6.299999999999998
 41
0.0
 71
     5
 72
     1
  1
0.25
  7
高6.3
 73
     1
 44
1.0
1001
ACAD
1000
MTEXTBEGIN
1070
    73
1070
     1
1070
    44
1040
1.0
1070
    74
1070
     0
1000
MTEXTEND
  0
POINT
  5
710
330
68A
100
AcDbEntity
  8
Defpoints
 62
     0
100
AcDbPoint
 10
2602.791736037656
 20
523.3218261325909
 30
0.0
  0
POINT
  5
711
330
68A
100
AcDbEntity
  8
Defpoints
 62
     0
100
AcDbPoint
 10
2600.334548983536
 20
523.3218261325909
 30
0.0
  0
POINT
  5
712
330
68A
100
AcDbEntity
  8
Defpoints
 62
     0
100
AcDbPoint
 10
2600.334548983536
 20
521.4121947105819
 30
0.0
  0
ENDBLK
  5
68C
330
68A
100
AcDbEntity
  8
0
100
AcDbBlockEnd
  0
BLOCK
  5
699
330
698
100
AcDbEntity
  8
0
100
AcDbBlockBegin
  2
*D9
 70
     1
 10
0.0
 20
0.0
 30
0.0
  3
*D9
  1

  0
LINE
  5
713
330
698
100
AcDbEntity
  8
0
 62
     0
370
    -2
100
AcDbLine
 10
2604.42986094373
 20
517.6157365598283
 30
0.0
 11
2604.42986094373
 21
515.0698444903651
 31
0.0
  0
LINE
  5
714
330
698
100
AcDbEntity
  8
0
 62
     0
370
    -2
100
AcDbLine
 10
2601.335625145587
 20
517.6157365598283
 30
0.0
 11
2601.335625145587
 21
515.0698444903651
 31
0.0
  0
LINE
  5
715
330
698
100
AcDbEntity
  8
0
 62
     0
370
    -2
100
AcDbLine
 10
2606.92986094373
 20
516.3198444903652
 30
0.0
 11
2609.42986094373
 21
516.3198444903652
 31
0.0
  0
LINE
  5
716
330
698
100
AcDbEntity
  8
0
 62
     0
370
    -2
100
AcDbLine
 10
2598.835625145587
 20
516.3198444903652
 30
0.0
 11
2586.835625145587
 21
516.3198444903652
 31
0.0
  0
LINE
  5
717
330
698
100
AcDbEntity
  8
0
 62
     0
370
    -2
100
AcDbLine
 10
2604.42986094373
 20
516.3198444903652
 30
0.0
 11
2601.335625145587
 21
516.3198444903652
 31
0.0
  0
INSERT
  5
718
330
698
100
AcDbEntity
  8
0
 62
     0
370
    -2
100
AcDbBlockReference
  2
_Open30
 10
2604.42986094373
 20
516.3198444903652
 30
0.0
 41
2.5
 42
2.5
 43
2.5
 50
180.0
  0
INSERT
  5
719
330
698
100
AcDbEntity
  8
0
 62
     0
370
    -2
100
AcDbBlockReference
  2
_Open30
 10
2601.335625145587
 20
516.3198444903652
 30
0.0
 41
2.5
 42
2.5
 43
2.5
  0
MTEXT
  5
71A
330
698
100
AcDbEntity
  8
0
 62
     4
100
AcDbMText
 10
2591.460625145586
 20
518.4448444903652
 30
0.0
 40
3.0
 41
0.0
 71
     5
 72
     1
  1
1.55
 73
     1
 44
1.0
1001
ACAD
1000
MTEXTBEGIN
1070
    73
1070
     1
1070
    44
1040
1.0
1070
    74
1070
     0
1000
MTEXTEND
  0
POINT
  5
71B
330
698
100
AcDbEntity
  8
Defpoints
 62
     0
100
AcDbPoint
 10
2604.42986094373
 20
517.8657365598285
 30
0.0
  0
POINT
  5
71C
330
698
100
AcDbEntity
  8
Defpoints
 62
     0
100
AcDbPoint
 10
2601.335625145587
 20
517.8657365598285
 30
0.0
  0
POINT
  5
71D
330
698
100
AcDbEntity
  8
Defpoints
 62
     0
100
AcDbPoint
 10
2601.335625145587
 20
516.3198444903652
 30
0.0
  0
ENDBLK
  5
69A
330
698
100
AcDbEntity
  8
0
100
AcDbBlockEnd
  0
BLOCK
  5
6A7
330
6A6
100
AcDbEntity
  8
0
100
AcDbBlockBegin
  2
*D10
 70
     1
 10
0.0
 20
0.0
 30
0.0
  3
*D10
  1

  0
LINE
  5
71E
330
6A6
100
AcDbEntity
  8
0
 62
     0
370
    -2
100
AcDbLine
 10
2606.158992551816
 20
512.159646843982
 30
0.0
 11
2606.158992551816
 21
509.8865591816148
 31
0.0
  0
LINE
  5
71F
330
6A6
100
AcDbEntity
  8
0
 62
     0
370
    -2
100
AcDbLine
 10
2602.154687598623
 20
512.159646843982
 30
0.0
 11
2602.154687598623
 21
509.8865591816148
 31
0.0
  0
LINE
  5
720
330
6A6
100
AcDbEntity
  8
0
 62
     0
370
    -2
100
AcDbLine
 10
2608.658992551815
 20
511.1365591816147
 30
0.0
 11
2611.158992551815
 21
511.1365591816147
 31
0.0
  0
LINE
  5
721
330
6A6
100
AcDbEntity
  8
0
 62
     0
370
    -2
100
AcDbLine
 10
2599.654687598623
 20
511.1365591816147
 30
0.0
 11
2591.32135426529
 21
511.1365591816147
 31
0.0
  0
LINE
  5
722
330
6A6
100
AcDbEntity
  8
0
 62
     0
370
    -2
100
AcDbLine
 10
2606.158992551816
 20
511.1365591816147
 30
0.0
 11
2602.154687598623
 21
511.1365591816147
 31
0.0
  0
INSERT
  5
723
330
6A6
100
AcDbEntity
  8
0
 62
     0
370
    -2
100
AcDbBlockReference
  2
_Open30
 10
2606.158992551816
 20
511.1365591816147
 30
0.0
 41
2.5
 42
2.5
 43
2.5
 50
180.0
  0
INSERT
  5
724
330
6A6
100
AcDbEntity
  8
0
 62
     0
370
    -2
100
AcDbBlockReference
  2
_Open30
 10
2602.154687598623
 20
511.1365591816147
 30
0.0
 41
2.5
 42
2.5
 43
2.5
  0
MTEXT
  5
725
330
6A6
100
AcDbEntity
  8
0
 62
     4
100
AcDbMText
 10
2593.779687598623
 20
512.7615591816146
 30
0.0
 40
2.0
 41
0.0
 71
     5
 72
     1
  1
0.8
  7
高2
 73
     1
 44
1.0
1001
ACAD
1000
MTEXTBEGIN
1070
    73
1070
     1
1070
    44
1040
1.0
1070
    74
1070
     0
1000
MTEXTEND
  0
POINT
  5
726
330
6A6
100
AcDbEntity
  8
Defpoints
 62
     0
100
AcDbPoint
 10
2606.158992551816
 20
512.409646843982
 30
0.0
  0
POINT
  5
727
330
6A6
100
AcDbEntity
  8
Defpoints
 62
     0
100
AcDbPoint
 10
2602.154687598623
 20
512.409646843982
 30
0.0
  0
POINT
  5
728
330
6A6
100
AcDbEntity
  8
Defpoints
 62
     0
100
AcDbPoint
 10
2602.154687598623
 20
511.1365591816147
 30
0.0
  0
ENDBLK
  5
6A8
330
6A6
100
AcDbEntity
  8
0
100
AcDbBlockEnd
  0
BLOCK
  5
6B5
330
6B4
100
AcDbEntity
  8
0
100
AcDbBlockBegin
  2
*D11
 70
     1
 10
0.0
 20
0.0
 30
0.0
  3
*D11
  1

  0
LINE
  5
729
330
6B4
100
AcDbEntity
  8
0
 62
     0
370
    -2
100
AcDbLine
 10
2606.067985849803
 20
506.8854268759503
 30
0.0
 11
2606.067985849803
 21
505.067013368494
 31
0.0
  0
LINE
  5
72A
330
6B4
100
AcDbEntity
  8
0
 62
     0
370
    -2
100
AcDbLine
 10
2601.335625145587
 20
506.8854268759503
 30
0.0
 11
2601.335625145587
 21
505.067013368494
 31
0.0
  0
LINE
  5
72B
330
6B4
100
AcDbEntity
  8
0
 62
     0
370
    -2
100
AcDbLine
 10
2608.567985849803
 20
506.317013368494
 30
0.0
 11
2611.067985849803
 21
506.317013368494
 31
0.0
  0
LINE
  5
72C
330
6B4
100
AcDbEntity
  8
0
 62
     0
370
    -2
100
AcDbLine
 10
2598.835625145587
 20
506.317013368494
 30
0.0
 11
2584.085625145587
 21
506.317013368494
 31
0.0
  0
LINE
  5
72D
330
6B4
100
AcDbEntity
  8
0
 62
     0
370
    -2
100
AcDbLine
 10
2606.067985849803
 20
506.317013368494
 30
0.0
 11
2601.335625145587
 21
506.317013368494
 31
0.0
  0
INSERT
  5
72E
330
6B4
100
AcDbEntity
  8
0
 62
     0
370
    -2
100
AcDbBlockReference
  2
_Open30
 10
2606.067985849803
 20
506.317013368494
 30
0.0
 41
2.5
 42
2.5
 43
2.5
 50
180.0
  0
INSERT
  5
72F
330
6B4
100
AcDbEntity
  8
0
 62
     0
370
    -2
100
AcDbBlockReference
  2
_Open30
 10
2601.335625145587
 20
506.317013368494
 30
0.0
 41
2.5
 42
2.5
 43
2.5
  0
MTEXT
  5
730
330
6B4
100
AcDbEntity
  8
0
 62
     4
100
AcDbMText
 10
2590.210625145588
 20
508.442013368494
 30
0.0
 40
3.0
 41
0.0
 71
     5
 72
     1
  1
18.93
 73
     1
 44
1.0
1001
ACAD
1000
MTEXTBEGIN
1070
    73
1070
     1
1070
    44
1040
1.0
1070
    74
1070
     0
1000
MTEXTEND
  0
POINT
  5
731
330
6B4
100
AcDbEntity
  8
Defpoints
 62
     0
100
AcDbPoint
 10
2606.067985849803
 20
507.1354268759503
 30
0.0
  0
POINT
  5
732
330
6B4
100
AcDbEntity
  8
Defpoints
 62
     0
100
AcDbPoint
 10
2601.335625145587
 20
507.1354268759503
 30
0.0
  0
POINT
  5
733
330
6B4
100
AcDbEntity
  8
Defpoints
 62
     0
100
AcDbPoint
 10
2601.335625145587
 20
506.317013368494
 30
0.0
  0
ENDBLK
  5
6B6
330
6B4
100
AcDbEntity
  8
0
100
AcDbBlockEnd
  0
BLOCK
  5
6C3
330
6C2
100
AcDbEntity
  8
0
100
AcDbBlockBegin
  2
*D12
 70
     1
 10
0.0
 20
0.0
 30
0.0
  3
*D12
  1

  0
LINE
  5
734
330
6C2
100
AcDbEntity
  8
0
 62
     0
370
    -2
100
AcDbLine
 10
2603.263558998664
 20
501.8295866693606
 30
0.0
 11
2603.263558998664
 21
499.5196655924851
 31
0.0
  0
LINE
  5
735
330
6C2
100
AcDbEntity
  8
0
 62
     0
370
    -2
100
AcDbLine
 10
2598.674883796517
 20
501.8295866693606
 30
0.0
 11
2598.674883796517
 21
499.5196655924851
 31
0.0
  0
LINE
  5
736
330
6C2
100
AcDbEntity
  8
0
 62
     0
370
    -2
100
AcDbLine
 10
2605.763558998665
 20
500.7696655924851
 30
0.0
 11
2608.263558998665
 21
500.7696655924851
 31
0.0
  0
LINE
  5
737
330
6C2
100
AcDbEntity
  8
0
 62
     0
370
    -2
100
AcDbLine
 10
2596.174883796516
 20
500.7696655924851
 30
0.0
 11
2581.424883796517
 21
500.7696655924851
 31
0.0
  0
LINE
  5
738
330
6C2
100
AcDbEntity
  8
0
 62
     0
370
    -2
100
AcDbLine
 10
2603.263558998664
 20
500.7696655924851
 30
0.0
 11
2598.674883796517
 21
500.7696655924851
 31
0.0
  0
INSERT
  5
739
330
6C2
100
AcDbEntity
  8
0
 62
     0
370
    -2
100
AcDbBlockReference
  2
_Open30
 10
2603.263558998664
 20
500.7696655924851
 30
0.0
 41
2.5
 42
2.5
 43
2.5
 50
180.0
  0
INSERT
  5
73A
330
6C2
100
AcDbEntity
  8
0
 62
     0
370
    -2
100
AcDbBlockReference
  2
_Open30
 10
2598.674883796517
 20
500.7696655924851
 30
0.0
 41
2.5
 42
2.5
 43
2.5
  0
MTEXT
  5
73B
330
6C2
100
AcDbEntity
  8
0
 62
     4
100
AcDbMText
 10
2587.549883796516
 20
502.8946655924851
 30
0.0
 40
3.0
 41
0.0
 71
     5
 72
     1
  1
13.77
 73
     1
 44
1.0
1001
ACAD
1000
MTEXTBEGIN
1070
    73
1070
     1
1070
    44
1040
1.0
1070
    74
1070
     0
1000
MTEXTEND
  0
POINT
  5
73C
330
6C2
100
AcDbEntity
  8
Defpoints
 62
     0
100
AcDbPoint
 10
2603.263558998664
 20
502.0795866693606
 30
0.0
  0
POINT
  5
73D
330
6C2
100
AcDbEntity
  8
Defpoints
 62
     0
100
AcDbPoint
 10
2598.674883796517
 20
502.0795866693606
 30
0.0
  0
POINT
  5
73E
330
6C2
100
AcDbEntity
  8
Defpoints
 62
     0
100
AcDbPoint
 10
2598.674883796517
 20
500.7696655924851
 30
0.0
  0
ENDBLK
  5
6C4
330
6C2
100
AcDbEntity
  8
0
100
AcDbBlockEnd
  0
BLOCK
  5
6D1
330
6D0
100
AcDbEntity
  8
0
100
AcDbBlockBegin
  2
*D13
 70
     1
 10
0.0
 20
0.0
 30
0.0
  3
*D13
  1

  0
LINE
  5
73F
330
6D0
100
AcDbEntity
  8
0
 62
     0
370
    -2
100
AcDbLine
 10
2596.167276165514
 20
532.7590779876349
 30
0.0
 11
2596.167276165514
 21
540.1556114655726
 31
0.0
  0
LINE
  5
740
330
6D0
100
AcDbEntity
  8
0
 62
     0
370
    -2
100
AcDbLine
 10
2586.228801796024
 20
532.7590779876349
 30
0.0
 11
2586.228801796024
 21
540.1556114655726
 31
0.0
  0
LINE
  5
741
330
6D0
100
AcDbEntity
  8
0
 62
     0
370
    -2
100
AcDbLine
 10
2593.667276165514
 20
538.9056114655726
 30
0.0
 11
2588.728801796024
 21
538.9056114655726
 31
0.0
  0
INSERT
  5
742
330
6D0
100
AcDbEntity
  8
0
 62
     0
370
    -2
100
AcDbBlockReference
  2
_Open30
 10
2596.167276165514
 20
538.9056114655726
 30
0.0
 41
2.5
 42
2.5
 43
2.5
  0
INSERT
  5
743
330
6D0
100
AcDbEntity
  8
0
 62
     0
370
    -2
100
AcDbBlockReference
  2
_Open30
 10
2586.228801796024
 20
538.9056114655726
 30
0.0
 41
2.5
 42
2.5
 43
2.5
 50
180.0
  0
MTEXT
  5
744
330
6D0
100
AcDbEntity
  8
0
 62
     4
100
AcDbMText
 10
2591.198038980769
 20
541.9806114655727
 30
0.0
 40
3.0
 41
0.0
 71
     5
 72
     1
  1
9.94\H0.7X;\S+0^ -0.02;
 73
     1
 44
1.0
1001
ACAD
1000
MTEXTBEGIN
1070
    73
1070
     1
1070
    44
1040
1.0
1070
    74
1070
     0
1000
MTEXTEND
  0
POINT
  5
745
330
6D0
100
AcDbEntity
  8
Defpoints
 62
     0
100
AcDbPoint
 10
2596.167276165514
 20
532.509077987635
 30
0.0
  0
POINT
  5
746
330
6D0
100
AcDbEntity
  8
Defpoints
 62
     0
100
AcDbPoint
 10
2586.228801796024
 20
532.509077987635
 30
0.0
  0
POINT
  5
747
330
6D0
100
AcDbEntity
  8
Defpoints
 62
     0
100
AcDbPoint
 10
2586.228801796024
 20
538.9056114655726
 30
0.0
  0
ENDBLK
  5
6D2
330
6D0
100
AcDbEntity
  8
0
100
AcDbBlockEnd
  0
ENDSEC
  0
SECTION
  2
ENTITIES
  0
ARC
  5
BB
330
6B
100
AcDbEntity
  8
0
 62
     3
100
AcDbCircle
 10
1988.845503
 20
425.332773
 30
0.0
 40
50.499438
100
AcDbArc
 50
81.96621
 51
98.03379200000001
  0
ARC
  5
BC
330
6B
100
AcDbEntity
  8
0
 62
     3
100
AcDbCircle
 10
1994.505587
 20
465.434741
 30
0.0
 40
10.0
100
AcDbArc
 50
42.777924
 51
81.96621
  0
ARC
  5
BD
330
6B
100
AcDbEntity
  8
0
 62
     3
100
AcDbCircle
 10
1983.185419
 20
465.434741
 30
0.0
 40
10.0
100
AcDbArc
 50
98.03379200000001
 51
137.222076
  0
LINE
  5
BE
330
6B
100
AcDbEntity
  8
0
 62
     3
100
AcDbLine
 10
1913.808472
 20
422.7088519999998
 30
0.0
 11
1913.320545
 21
422.7088519999998
 31
0.0
  0
LINE
  5
BF
330
6B
100
AcDbEntity
  8
0
 62
     3
100
AcDbLine
 10
2021.720545
 20
556.7034629999998
 30
0.0
 11
2105.320545
 21
556.7034629999998
 31
0.0
  0
TEXT
  5
C0
330
6B
100
AcDbEntity
  8
0
 62
     3
100
AcDbText
 10
2094.595545
 20
552.5584629999998
 30
0.0
 40
3.2
  1
担
  7
高3.2
100
AcDbText
  0
TEXT
  5
C1
330
6B
100
AcDbEntity
  8
0
 62
     3
100
AcDbText
 10
2101.483045
 20
552.5584629999998
 30
0.0
 40
3.2
  1
当
  7
高3.2
100
AcDbText
  0
TEXT
  5
C2
330
6B
100
AcDbEntity
  8
0
 62
     3
100
AcDbText
 10
2054.399768
 20
552.5412999999998
 30
0.0
 40
3.2
  1
変更・追記内容
  7
高3.2
100
AcDbText
  0
LINE
  5
C3
330
6B
100
AcDbEntity
  8
0
 62
     3
100
AcDbLine
 10
2021.720545
 20
561.2088519999998
 30
0.0
 11
2021.720545
 21
541.8534629999998
 31
0.0
  0
TEXT
  5
C4
330
6B
100
AcDbEntity
  8
0
 62
     3
100
AcDbText
 10
2026.20154178701
 20
547.8432278762138
 30
0.0
 40
2.0
  1
1
  7
高2
100
AcDbText
  0
TEXT
  5
C5
330
6B
100
AcDbEntity
  8
0
 62
     3
100
AcDbText
 10
2025.831193718611
 20
542.7023344828385
 30
0.0
 40
2.0
  1
2
  7
高2
100
AcDbText
  0
TEXT
  5
C6
330
6B
100
AcDbEntity
  8
0
 62
     3
100
AcDbText
 10
2034.679494
 20
552.5454864169331
 30
0.0
 40
3.2
  1
日
  7
高3.2
100
AcDbText
  0
TEXT
  5
C7
330
6B
100
AcDbEntity
  8
0
 62
     3
100
AcDbText
 10
2043.556368
 20
552.5454864169331
 30
0.0
 40
3.2
  1
付
  7
高3.2
100
AcDbText
  0
TEXT
  5
C8
330
6B
100
AcDbEntity
  8
0
 62
     3
100
AcDbText
 10
2034.505335
 20
557.3534629999998
 30
0.0
 40
3.2
  1
図
  7
高3.2
100
AcDbText
  0
TEXT
  5
C9
330
6B
100
AcDbEntity
  8
0
 62
     3
100
AcDbText
 10
2053.16123
 20
557.3534629999998
 30
0.0
 40
3.2
  1
面
  7
高3.2
100
AcDbText
  0
TEXT
  5
CA
330
6B
100
AcDbEntity
  8
0
 62
     3
100
AcDbText
 10
2071.817126
 20
557.3534629999998
 30
0.0
 40
3.2
  1
略
  7
高3.2
100
AcDbText
  0
TEXT
  5
CB
330
6B
100
AcDbEntity
  8
0
 62
     3
100
AcDbText
 10
2090.473021000001
 20
557.3534629999998
 30
0.0
 40
3.2
  1
歴
  7
高3.2
100
AcDbText
  0
TEXT
  5
CC
330
6B
100
AcDbEntity
  8
0
 62
     3
100
AcDbText
 10
2022.322909
 20
552.4784629999998
 30
0.0
 40
3.2
  1
記
  7
高3.2
100
AcDbText
  0
TEXT
  5
CD
330
6B
100
AcDbEntity
  8
0
 62
     3
100
AcDbText
 10
2028.575817
 20
552.4784629999998
 30
0.0
 40
3.2
  1
号
  7
高3.2
100
AcDbText
  0
LINE
  5
CE
330
6B
100
AcDbEntity
  8
0
 62
     3
100
AcDbLine
 10
2105.320545
 20
541.8534629999998
 30
0.0
 11
2021.720545
 21
541.8534629999998
 31
0.0
  0
LINE
  5
D1
330
6B
100
AcDbEntity
  8
0
 62
     2
100
AcDbLine
 10
1992.404897
 20
562.996296
 30
0.0
 11
1992.840645
 21
562.768828
 31
0.0
  0
LINE
  5
D2
330
6B
100
AcDbEntity
  8
0
 62
     2
100
AcDbLine
 10
1992.404897
 20
559.265666
 30
0.0
 11
1992.840645
 21
559.4931339999998
 31
0.0
  0
LINE
  5
D3
330
6B
100
AcDbEntity
  8
0
 62
     2
100
AcDbLine
 10
1992.840645
 20
562.768828
 30
0.0
 11
1992.840645
 21
559.4931339999998
 31
0.0
  0
LINE
  5
D4
330
6B
100
AcDbEntity
  8
0
 62
     2
100
AcDbLine
 10
1993.944162
 20
559.265666
 30
0.0
 11
1993.508414
 21
559.4931339999998
 31
0.0
  0
LINE
  5
D5
330
6B
100
AcDbEntity
  8
0
 62
     2
100
AcDbLine
 10
1993.508414
 20
561.489992
 30
0.0
 11
1993.508414
 21
559.4931339999998
 31
0.0
  0
LINE
  5
D6
330
6B
100
AcDbEntity
  8
0
 62
     2
100
AcDbLine
 10
1996.486025
 20
562.996296
 30
0.0
 11
1996.050277
 21
562.768828
 31
0.0
  0
LINE
  5
D7
330
6B
100
AcDbEntity
  8
0
 62
     2
100
AcDbLine
 10
1994.94676
 20
562.996296
 30
0.0
 11
1995.382508
 21
562.768828
 31
0.0
  0
LINE
  5
D8
330
6B
100
AcDbEntity
  8
0
 62
     2
100
AcDbLine
 10
1995.382508
 20
562.768828
 30
0.0
 11
1995.382508
 21
561.326491
 31
0.0
  0
LINE
  5
D9
330
6B
100
AcDbEntity
  8
0
 62
     2
100
AcDbLine
 10
1996.050277
 20
562.768828
 30
0.0
 11
1996.050277
 21
559.054104
 31
0.0
  0
LINE
  5
DA
330
6B
100
AcDbEntity
  8
0
 62
     2
100
AcDbLine
 10
1996.701322
 20
562.9962929999997
 30
0.0
 11
1997.137069
 21
562.768822
 31
0.0
  0
LINE
  5
DB
330
6B
100
AcDbEntity
  8
0
 62
     2
100
AcDbLine
 10
1996.701244
 20
559.2657149999999
 30
0.0
 11
1997.137
 21
559.493168
 31
0.0
  0
LINE
  5
DC
330
6B
100
AcDbEntity
  8
0
 62
     2
100
AcDbLine
 10
1997.137069
 20
562.768822
 30
0.0
 11
1997.137069
 21
559.493168
 31
0.0
  0
LINE
  5
DD
330
6B
100
AcDbEntity
  8
0
 62
     2
100
AcDbLine
 10
1998.630859
 20
562.99627
 30
0.0
 11
1998.195107
 21
562.768808
 31
0.0
  0
LINE
  5
DE
330
6B
100
AcDbEntity
  8
0
 62
     2
100
AcDbLine
 10
1998.195107
 20
562.768808
 30
0.0
 11
1998.195107
 21
559.493154
 31
0.0
  0
LINE
  5
DF
330
6B
100
AcDbEntity
  8
0
 62
     2
100
AcDbLine
 10
1998.630859
 20
559.2656919999998
 30
0.0
 11
1998.195107
 21
559.493154
 31
0.0
  0
LINE
  5
E0
330
6B
100
AcDbEntity
  8
0
 62
     2
100
AcDbLine
 10
2002.321112
 20
562.9962289999999
 30
0.0
 11
2002.756859
 21
562.7687589999998
 31
0.0
  0
LINE
  5
E1
330
6B
100
AcDbEntity
  8
0
 62
     2
100
AcDbLine
 10
2002.756859
 20
562.7687589999998
 30
0.0
 11
2002.756802
 21
559.493105
 31
0.0
  0
LINE
  5
E2
330
6B
100
AcDbEntity
  8
0
 62
     2
100
AcDbLine
 10
2002.321047
 20
559.2656509999998
 30
0.0
 11
2002.756802
 21
559.493105
 31
0.0
  0
LINE
  5
E3
330
6B
100
AcDbEntity
  8
0
 62
     2
100
AcDbLine
 10
2004.273373
 20
562.9962289999999
 30
0.0
 11
2003.837626000001
 21
562.7687589999998
 31
0.0
  0
LINE
  5
E4
330
6B
100
AcDbEntity
  8
0
 62
     2
100
AcDbLine
 10
2004.273438
 20
559.2656509999998
 30
0.0
 11
2003.837683
 21
559.493105
 31
0.0
  0
LINE
  5
E5
330
6B
100
AcDbEntity
  8
0
 62
     2
100
AcDbLine
 10
2004.477101
 20
562.9962289999999
 30
0.0
 11
2004.912848
 21
562.7687589999998
 31
0.0
  0
LINE
  5
E6
330
6B
100
AcDbEntity
  8
0
 62
     2
100
AcDbLine
 10
2004.477036
 20
559.2656509999998
 30
0.0
 11
2004.912791
 21
559.493105
 31
0.0
  0
LINE
  5
E7
330
6B
100
AcDbEntity
  8
0
 62
     2
100
AcDbLine
 10
2006.429362
 20
562.9962289999999
 30
0.0
 11
2005.993615
 21
562.7687589999998
 31
0.0
  0
LINE
  5
E8
330
6B
100
AcDbEntity
  8
0
 62
     2
100
AcDbLine
 10
2005.993615
 20
562.7687589999998
 30
0.0
 11
2005.993672
 21
559.493105
 31
0.0
  0
LINE
  5
E9
330
6B
100
AcDbEntity
  8
0
 62
     2
100
AcDbLine
 10
2006.429427
 20
559.2656509999998
 30
0.0
 11
2005.993672
 21
559.493105
 31
0.0
  0
LINE
  5
EA
330
6B
100
AcDbEntity
  8
0
 62
     2
100
AcDbLine
 10
2004.912823
 20
561.341626
 30
0.0
 11
2003.837651
 21
561.341626
 31
0.0
  0
LINE
  5
EB
330
6B
100
AcDbEntity
  8
0
 62
     2
100
AcDbLine
 10
2004.912816
 20
560.920336
 30
0.0
 11
2003.837658
 21
560.920336
 31
0.0
  0
LINE
  5
EC
330
6B
100
AcDbEntity
  8
0
 62
     2
100
AcDbLine
 10
2004.912848
 20
562.7687589999998
 30
0.0
 11
2004.912823
 21
561.341626
 31
0.0
  0
LINE
  5
ED
330
6B
100
AcDbEntity
  8
0
 62
     2
100
AcDbLine
 10
2004.912816
 20
560.920336
 30
0.0
 11
2004.912791
 21
559.493105
 31
0.0
  0
LINE
  5
EE
330
6B
100
AcDbEntity
  8
0
 62
     2
100
AcDbLine
 10
2003.837626000001
 20
562.7687589999998
 30
0.0
 11
2003.837651
 21
561.341626
 31
0.0
  0
LINE
  5
EF
330
6B
100
AcDbEntity
  8
0
 62
     2
100
AcDbLine
 10
2003.837658
 20
560.920336
 30
0.0
 11
2003.837683
 21
559.493105
 31
0.0
  0
LINE
  5
F0
330
6B
100
AcDbEntity
  8
0
 62
     2
100
AcDbLine
 10
2006.636321
 20
562.9962289999999
 30
0.0
 11
2007.072068
 21
562.7687589999998
 31
0.0
  0
LINE
  5
F1
330
6B
100
AcDbEntity
  8
0
 62
     2
100
AcDbLine
 10
2007.072068
 20
562.7687589999998
 30
0.0
 11
2007.072011
 21
559.493105
 31
0.0
  0
LINE
  5
F2
330
6B
100
AcDbEntity
  8
0
 62
     2
100
AcDbLine
 10
2006.636256
 20
559.2656509999998
 30
0.0
 11
2007.072011
 21
559.493105
 31
0.0
  0
LINE
  5
F3
330
6B
100
AcDbEntity
  8
0
 62
     2
100
AcDbLine
 10
2008.565831
 20
562.9962289999999
 30
0.0
 11
2008.130084
 21
562.7687589999998
 31
0.0
  0
LINE
  5
F4
330
6B
100
AcDbEntity
  8
0
 62
     2
100
AcDbLine
 10
2008.130084
 20
562.7687589999998
 30
0.0
 11
2008.130141
 21
559.493105
 31
0.0
  0
LINE
  5
F5
330
6B
100
AcDbEntity
  8
0
 62
     2
100
AcDbLine
 10
2008.565896
 20
559.2656509999998
 30
0.0
 11
2008.130141
 21
559.493105
 31
0.0
  0
LINE
  5
F6
330
6B
100
AcDbEntity
  8
0
 62
     2
100
AcDbLine
 10
2008.780191
 20
562.9962289999999
 30
0.0
 11
2009.215938
 21
562.7687589999998
 31
0.0
  0
LINE
  5
F7
330
6B
100
AcDbEntity
  8
0
 62
     2
100
AcDbLine
 10
2009.215938
 20
562.7687589999998
 30
0.0
 11
2009.215881
 21
559.493105
 31
0.0
  0
LINE
  5
F8
330
6B
100
AcDbEntity
  8
0
 62
     2
100
AcDbLine
 10
2008.780126
 20
559.2656509999998
 30
0.0
 11
2009.215881
 21
559.493105
 31
0.0
  0
ARC
  5
F9
330
6B
100
AcDbEntity
  8
0
 62
     2
100
AcDbCircle
 10
2000.929201
 20
561.1403709999998
 30
0.0
 40
2.086285999999998
100
AcDbArc
 50
97.701524
 51
270.0
  0
ARC
  5
FA
330
6B
100
AcDbEntity
  8
0
 62
     2
100
AcDbCircle
 10
2013.809802
 20
561.119414
 30
0.0
 40
2.108943
100
AcDbArc
 50
0.31425
 51
69.00558199999998
  0
ARC
  5
FB
330
6B
100
AcDbEntity
  8
0
 62
     2
100
AcDbCircle
 10
2014.270477
 20
561.119414
 30
0.0
 40
2.108943
100
AcDbArc
 50
110.994418
 51
148.116611
  0
ARC
  5
FC
330
6B
100
AcDbEntity
  8
0
 62
     2
100
AcDbCircle
 10
2013.809802
 20
561.142548
 30
0.0
 40
2.108943
100
AcDbArc
 50
290.994418
 51
359.68575
  0
ARC
  5
FD
330
6B
100
AcDbEntity
  8
0
 62
     2
100
AcDbCircle
 10
2014.270477
 20
561.142548
 30
0.0
 40
2.108943
100
AcDbArc
 50
211.883389
 51
249.005582
  0
ARC
  5
FE
330
6B
100
AcDbEntity
  8
0
 62
     2
100
AcDbCircle
 10
2014.040139
 20
561.993786
 30
0.0
 40
1.214070999999999
100
AcDbArc
 50
64.365172
 51
115.634828
  0
ARC
  5
FF
330
6B
100
AcDbEntity
  8
0
 62
     2
100
AcDbCircle
 10
2014.040139
 20
560.268175
 30
0.0
 40
1.214070999999999
100
AcDbArc
 50
244.365172
 51
295.634828
  0
ARC
  5
100
330
6B
100
AcDbEntity
  8
0
 62
     2
100
AcDbCircle
 10
2014.040139
 20
562.0168480000002
 30
0.0
 40
0.5958560000000001
100
AcDbArc
 50
19.486606
 51
160.513394
  0
ARC
  5
101
330
6B
100
AcDbEntity
  8
0
 62
     2
100
AcDbCircle
 10
2014.040139
 20
560.2451139999998
 30
0.0
 40
0.5958560000000001
100
AcDbArc
 50
199.4866059999999
 51
340.513394
  0
ARC
  5
102
330
6B
100
AcDbEntity
  8
0
 62
     3
100
AcDbCircle
 10
2009.297667
 20
538.902921
 30
0.0
 40
26.04
100
AcDbArc
 50
69.50571500000001
 51
81.689988
  0
ARC
  5
103
330
6B
100
AcDbEntity
  8
0
 62
     3
100
AcDbCircle
 10
2009.297667
 20
583.359041
 30
0.0
 40
26.04
100
AcDbArc
 50
278.310012
 51
290.494285
  0
ARC
  5
104
330
6B
100
AcDbEntity
  8
0
 62
     3
100
AcDbCircle
 10
2017.605871
 20
561.1309809999998
 30
0.0
 40
2.31
100
AcDbArc
 50
290.494285
 51
69.50571500000001
  0
ARC
  5
105
330
6B
100
AcDbEntity
  8
0
 62
     3
100
AcDbCircle
 10
1990.305871
 20
561.1309809999998
 30
0.0
 40
2.31
100
AcDbArc
 50
110.494285
 51
249.505715
  0
ARC
  5
106
330
6B
100
AcDbEntity
  8
0
 62
     3
100
AcDbCircle
 10
1998.614075
 20
538.902921
 30
0.0
 40
26.04
100
AcDbArc
 50
98.31001200000001
 51
110.494285
  0
ARC
  5
107
330
6B
100
AcDbEntity
  8
0
 62
     3
100
AcDbCircle
 10
1998.614075
 20
583.359041
 30
0.0
 40
26.04
100
AcDbArc
 50
249.505715
 51
261.689988
  0
ARC
  5
108
330
6B
100
AcDbEntity
  8
0
 62
     3
100
AcDbCircle
 10
2003.955871
 20
502.3309809999998
 30
0.0
 40
63.0
100
AcDbArc
 50
81.689988
 51
98.31001200000001
  0
ARC
  5
109
330
6B
100
AcDbEntity
  8
0
 62
     3
100
AcDbCircle
 10
2003.955871
 20
619.9309809999999
 30
0.0
 40
63.0
100
AcDbArc
 50
261.689988
 51
278.310012
  0
ARC
  5
10A
330
6B
100
AcDbEntity
  8
0
 62
     3
100
AcDbCircle
 10
2003.955871
 20
502.3309809999998
 30
0.0
 40
62.37
100
AcDbArc
 50
81.689988
 51
98.31001200000001
  0
ARC
  5
10B
330
6B
100
AcDbEntity
  8
0
 62
     3
100
AcDbCircle
 10
2003.955871
 20
619.9309809999999
 30
0.0
 40
62.37
100
AcDbArc
 50
261.689988
 51
278.310012
  0
ARC
  5
10C
330
6B
100
AcDbEntity
  8
0
 62
     3
100
AcDbCircle
 10
2009.297667
 20
583.359041
 30
0.0
 40
25.41
100
AcDbArc
 50
278.310012
 51
290.494285
  0
ARC
  5
10D
330
6B
100
AcDbEntity
  8
0
 62
     3
100
AcDbCircle
 10
2009.297667
 20
538.902921
 30
0.0
 40
25.41
100
AcDbArc
 50
69.50571500000001
 51
81.689988
  0
ARC
  5
10E
330
6B
100
AcDbEntity
  8
0
 62
     3
100
AcDbCircle
 10
2017.605871
 20
561.1309809999998
 30
0.0
 40
1.679999999999999
100
AcDbArc
 50
290.494285
 51
69.50571500000001
  0
ARC
  5
10F
330
6B
100
AcDbEntity
  8
0
 62
     3
100
AcDbCircle
 10
1990.305871
 20
561.1309809999998
 30
0.0
 40
1.679999999999999
100
AcDbArc
 50
110.494285
 51
249.505715
  0
ARC
  5
110
330
6B
100
AcDbEntity
  8
0
 62
     3
100
AcDbCircle
 10
1998.614075
 20
538.902921
 30
0.0
 40
25.41
100
AcDbArc
 50
98.31001200000001
 51
110.494285
  0
ARC
  5
111
330
6B
100
AcDbEntity
  8
0
 62
     3
100
AcDbCircle
 10
1998.614075
 20
583.359041
 30
0.0
 40
25.41
100
AcDbArc
 50
249.505715
 51
261.689988
  0
LINE
  5
112
330
6B
100
AcDbEntity
  8
0
 62
     2
100
AcDbLine
 10
2008.565832
 20
559.054104
 30
0.0
 11
2006.63632
 21
559.054104
 31
0.0
  0
LINE
  5
113
330
6B
100
AcDbEntity
  8
0
 62
     2
100
AcDbLine
 10
2008.565832
 20
559.265666
 30
0.0
 11
2008.565832
 21
559.054104
 31
0.0
  0
LINE
  5
114
330
6B
100
AcDbEntity
  8
0
 62
     2
100
AcDbLine
 10
2006.429363
 20
563.2077579999998
 30
0.0
 11
2004.4771
 21
563.2077579999998
 31
0.0
  0
LINE
  5
115
330
6B
100
AcDbEntity
  8
0
 62
     2
100
AcDbLine
 10
2006.429363
 20
563.2077579999998
 30
0.0
 11
2006.429363
 21
562.996296
 31
0.0
  0
LINE
  5
116
330
6B
100
AcDbEntity
  8
0
 62
     2
100
AcDbLine
 10
2006.429363
 20
559.265666
 30
0.0
 11
2006.429363
 21
559.0540059999998
 31
0.0
  0
LINE
  5
117
330
6B
100
AcDbEntity
  8
0
 62
     2
100
AcDbLine
 10
2006.429363
 20
559.0540059999998
 30
0.0
 11
2004.4771
 21
559.0540059999998
 31
0.0
  0
LINE
  5
118
330
6B
100
AcDbEntity
  8
0
 62
     2
100
AcDbLine
 10
2008.565832
 20
563.207857
 30
0.0
 11
2008.565832
 21
562.996296
 31
0.0
  0
LINE
  5
119
330
6B
100
AcDbEntity
  8
0
 62
     2
100
AcDbLine
 10
2008.565832
 20
563.207857
 30
0.0
 11
2006.63632
 21
563.207857
 31
0.0
  0
LINE
  5
11A
330
6B
100
AcDbEntity
  8
0
 62
     2
100
AcDbLine
 10
2006.63632
 20
563.207857
 30
0.0
 11
2006.63632
 21
562.996296
 31
0.0
  0
LINE
  5
11B
330
6B
100
AcDbEntity
  8
0
 62
     2
100
AcDbLine
 10
2008.78019
 20
559.265666
 30
0.0
 11
2008.78019
 21
559.054104
 31
0.0
  0
LINE
  5
11C
330
6B
100
AcDbEntity
  8
0
 62
     2
100
AcDbLine
 10
2010.764491
 20
559.054104
 30
0.0
 11
2008.78019
 21
559.054104
 31
0.0
  0
LINE
  5
11D
330
6B
100
AcDbEntity
  8
0
 62
     2
100
AcDbLine
 10
2010.273954
 20
562.5400879999999
 30
0.0
 11
2010.273954
 21
559.721874
 31
0.0
  0
LINE
  5
11E
330
6B
100
AcDbEntity
  8
0
 62
     2
100
AcDbLine
 10
2010.273954
 20
559.721874
 30
0.0
 11
2010.464003
 21
559.721874
 31
0.0
  0
ARC
  5
11F
330
6B
100
AcDbEntity
  8
0
 62
     2
100
AcDbCircle
 10
2009.492217
 20
561.1309809999998
 30
0.0
 40
1.711709999999999
100
AcDbArc
 50
304.591955
 51
55.408045
  0
LINE
  5
120
330
6B
100
AcDbEntity
  8
0
 62
     2
100
AcDbLine
 10
2010.764491
 20
563.207857
 30
0.0
 11
2008.78019
 21
563.207857
 31
0.0
  0
LINE
  5
121
330
6B
100
AcDbEntity
  8
0
 62
     2
100
AcDbLine
 10
2008.78019
 20
563.207857
 30
0.0
 11
2008.78019
 21
562.996296
 31
0.0
  0
LINE
  5
122
330
6B
100
AcDbEntity
  8
0
 62
     2
100
AcDbLine
 10
2006.63632
 20
559.265666
 30
0.0
 11
2006.63632
 21
559.054104
 31
0.0
  0
LINE
  5
123
330
6B
100
AcDbEntity
  8
0
 62
     2
100
AcDbLine
 10
2010.273954
 20
562.5400879999999
 30
0.0
 11
2010.464003
 21
562.5400879999999
 31
0.0
  0
LINE
  5
124
330
6B
100
AcDbEntity
  8
0
 62
     2
100
AcDbLine
 10
1998.630794
 20
559.265666
 30
0.0
 11
1998.630791
 21
559.054085
 31
0.0
  0
LINE
  5
125
330
6B
100
AcDbEntity
  8
0
 62
     2
100
AcDbLine
 10
1996.701279
 20
559.054124
 30
0.0
 11
1998.630791
 21
559.05409
 31
0.0
  0
LINE
  5
126
330
6B
100
AcDbEntity
  8
0
 62
     2
100
AcDbLine
 10
1992.404897
 20
559.054104
 30
0.0
 11
1993.944162
 21
559.054104
 31
0.0
  0
ARC
  5
127
330
6B
100
AcDbEntity
  8
0
 62
     2
100
AcDbCircle
 10
1987.422954
 20
561.179887
 30
0.0
 40
14.713566
100
AcDbArc
 50
353.866006
 51
357.694034
  0
LINE
  5
128
330
6B
100
AcDbEntity
  8
0
 62
     2
100
AcDbLine
 10
2001.139534
 20
560.59152
 30
0.0
 11
2002.124605
 21
560.587875
 31
0.0
  0
LINE
  5
16B
330
6B
100
AcDbEntity
  8
0
 62
     2
100
AcDbLine
 10
2001.143512
 20
561.666734
 30
0.0
 11
2002.128583
 21
561.66309
 31
0.0
  0
ARC
  5
16C
330
6B
100
AcDbEntity
  8
0
 62
     2
100
AcDbCircle
 10
1987.422954
 20
561.179887
 30
0.0
 40
14.713566
100
AcDbArc
 50
1.881965999999999
 51
5.709994
  0
LINE
  5
16D
330
6B
100
AcDbEntity
  8
0
 62
     2
100
AcDbLine
 10
1998.630863
 20
563.207837
 30
0.0
 11
1998.630859
 21
562.996296
 31
0.0
  0
LINE
  5
16E
330
6B
100
AcDbEntity
  8
0
 62
     2
100
AcDbLine
 10
1996.701351
 20
563.2078769999998
 30
0.0
 11
1998.630863
 21
563.2078429999998
 31
0.0
  0
LINE
  5
16F
330
6B
100
AcDbEntity
  8
0
 62
     2
100
AcDbLine
 10
1996.701282
 20
559.265666
 30
0.0
 11
1996.701279
 21
559.054124
 31
0.0
  0
LINE
  5
170
330
6B
100
AcDbEntity
  8
0
 62
     2
100
AcDbLine
 10
1996.701351
 20
563.2078769999998
 30
0.0
 11
1996.701348
 21
562.996296
 31
0.0
  0
LINE
  5
171
330
6B
100
AcDbEntity
  8
0
 62
     2
100
AcDbLine
 10
1993.944162
 20
559.265666
 30
0.0
 11
1993.944162
 21
559.054104
 31
0.0
  0
LINE
  5
172
330
6B
100
AcDbEntity
  8
0
 62
     2
100
AcDbLine
 10
1993.508414
 20
561.489992
 30
0.0
 11
1995.030844
 21
559.054104
 31
0.0
  0
LINE
  5
173
330
6B
100
AcDbEntity
  8
0
 62
     2
100
AcDbLine
 10
1995.030844
 20
559.054104
 30
0.0
 11
1996.050277
 21
559.054104
 31
0.0
  0
LINE
  5
174
330
6B
100
AcDbEntity
  8
0
 62
     2
100
AcDbLine
 10
1996.486025
 20
563.207857
 30
0.0
 11
1996.486025
 21
562.996296
 31
0.0
  0
LINE
  5
175
330
6B
100
AcDbEntity
  8
0
 62
     2
100
AcDbLine
 10
1994.94676
 20
563.207857
 30
0.0
 11
1996.486025
 21
563.207857
 31
0.0
  0
LINE
  5
176
330
6B
100
AcDbEntity
  8
0
 62
     2
100
AcDbLine
 10
1994.94676
 20
563.207857
 30
0.0
 11
1994.94676
 21
562.996296
 31
0.0
  0
LINE
  5
177
330
6B
100
AcDbEntity
  8
0
 62
     2
100
AcDbLine
 10
1995.382508
 20
561.326491
 30
0.0
 11
1994.147861
 21
563.207857
 31
0.0
  0
LINE
  5
178
330
6B
100
AcDbEntity
  8
0
 62
     2
100
AcDbLine
 10
1992.404897
 20
563.207857
 30
0.0
 11
1994.147861
 21
563.207857
 31
0.0
  0
LINE
  5
179
330
6B
100
AcDbEntity
  8
0
 62
     2
100
AcDbLine
 10
2002.321111
 20
563.2077579999998
 30
0.0
 11
2004.273374
 21
563.2077579999998
 31
0.0
  0
LINE
  5
17A
330
6B
100
AcDbEntity
  8
0
 62
     2
100
AcDbLine
 10
2002.321111
 20
562.996296
 30
0.0
 11
2002.321111
 21
563.2077579999998
 31
0.0
  0
LINE
  5
17B
330
6B
100
AcDbEntity
  8
0
 62
     2
100
AcDbLine
 10
2002.321111
 20
559.0540059999998
 30
0.0
 11
2002.321111
 21
559.265666
 31
0.0
  0
LINE
  5
17C
330
6B
100
AcDbEntity
  8
0
 62
     2
100
AcDbLine
 10
2002.321111
 20
559.0540059999998
 30
0.0
 11
2004.273374
 21
559.0540059999998
 31
0.0
  0
LINE
  5
17D
330
6B
100
AcDbEntity
  8
0
 62
     2
100
AcDbLine
 10
2004.4771
 20
559.265666
 30
0.0
 11
2004.4771
 21
559.0540059999998
 31
0.0
  0
LINE
  5
17E
330
6B
100
AcDbEntity
  8
0
 62
     2
100
AcDbLine
 10
2004.273374
 20
559.265666
 30
0.0
 11
2004.273374
 21
559.0540059999998
 31
0.0
  0
LINE
  5
17F
330
6B
100
AcDbEntity
  8
0
 62
     2
100
AcDbLine
 10
2004.273374
 20
562.996296
 30
0.0
 11
2004.273374
 21
563.2077579999998
 31
0.0
  0
LINE
  5
180
330
6B
100
AcDbEntity
  8
0
 62
     2
100
AcDbLine
 10
2004.4771
 20
562.996296
 30
0.0
 11
2004.4771
 21
563.2077579999998
 31
0.0
  0
LINE
  5
181
330
6B
100
AcDbEntity
  8
0
 62
     2
100
AcDbLine
 10
1992.404897
 20
559.265666
 30
0.0
 11
1992.404897
 21
559.054104
 31
0.0
  0
LINE
  5
182
330
6B
100
AcDbEntity
  8
0
 62
     2
100
AcDbLine
 10
1992.404897
 20
563.207857
 30
0.0
 11
1992.404897
 21
562.996296
 31
0.0
  0
ARC
  5
183
330
6B
100
AcDbEntity
  8
0
 62
     2
100
AcDbCircle
 10
2010.974491
 20
561.566729
 30
0.0
 40
1.641127999999999
100
AcDbArc
 50
17.308749
 51
23.765071
  0
ARC
  5
184
330
6B
100
AcDbEntity
  8
0
 62
     2
100
AcDbCircle
 10
2009.576217000001
 20
561.1309809999998
 30
0.0
 40
3.105725999999998
100
AcDbArc
 50
342.691251
 51
17.308566
  0
ARC
  5
185
330
6B
100
AcDbEntity
  8
0
 62
     2
100
AcDbCircle
 10
2010.974491
 20
560.695233
 30
0.0
 40
1.641127999999999
100
AcDbArc
 50
336.234929
 51
342.691251
  0
ARC
  5
186
330
6B
100
AcDbEntity
  8
0
 62
     2
100
AcDbCircle
 10
2010.764491
 20
561.566729
 30
0.0
 40
1.641127999999999
100
AcDbArc
 50
17.308749
 51
90.0
  0
ARC
  5
187
330
6B
100
AcDbEntity
  8
0
 62
     2
100
AcDbCircle
 10
2009.366217
 20
561.1309809999998
 30
0.0
 40
3.105725999999998
100
AcDbArc
 50
342.691251
 51
17.308566
  0
ARC
  5
188
330
6B
100
AcDbEntity
  8
0
 62
     2
100
AcDbCircle
 10
2010.764491
 20
560.695233
 30
0.0
 40
1.641127999999999
100
AcDbArc
 50
270.0
 51
342.691251
  0
ARC
  5
189
330
6B
100
AcDbEntity
  8
0
 62
     2
100
AcDbCircle
 10
2000.64055
 20
561.1309809999998
 30
0.0
 40
2.076875999999999
100
AcDbArc
 50
46.75287999999999
 51
89.749998
  0
ARC
  5
18A
330
6B
100
AcDbEntity
  8
0
 62
     2
100
AcDbCircle
 10
2000.64055
 20
561.1309809999998
 30
0.0
 40
2.076875999999999
100
AcDbArc
 50
273.976333
 51
312.82312
  0
ARC
  5
18B
330
6B
100
AcDbEntity
  8
0
 62
     2
100
AcDbCircle
 10
2012.082358
 20
561.098919
 30
0.0
 40
2.755888999999998
100
AcDbArc
 50
0.6665840000000001
 51
23.903928
  0
ARC
  5
18C
330
6B
100
AcDbEntity
  8
0
 62
     2
100
AcDbCircle
 10
2015.99792
 20
561.098919
 30
0.0
 40
2.755888999999998
100
AcDbArc
 50
156.096072
 51
179.333416
  0
ARC
  5
18D
330
6B
100
AcDbEntity
  8
0
 62
     2
100
AcDbCircle
 10
2012.082358
 20
561.163042
 30
0.0
 40
2.755888999999998
100
AcDbArc
 50
336.096072
 51
359.333416
  0
ARC
  5
18E
330
6B
100
AcDbEntity
  8
0
 62
     2
100
AcDbCircle
 10
2015.99792
 20
561.163042
 30
0.0
 40
2.755888999999998
100
AcDbArc
 50
180.666584
 51
203.903928
  0
LINE
  5
191
330
6B
100
AcDbEntity
  8
0
 62
     3
100
AcDbLine
 10
2079.621181
 20
300.8745749999999
 30
0.0
 11
2079.621181
 21
323.874575
 31
0.0
  0
LINE
  5
193
330
6B
100
AcDbEntity
  8
0
 62
     3
100
AcDbLine
 10
2026.567572
 20
293.8745749999999
 30
0.0
 11
2026.567572
 21
307.8745749999999
 31
0.0
  0
TEXT
  5
195
330
6B
100
AcDbEntity
  8
0
 62
     3
100
AcDbText
 10
2055.631499
 20
320.079691
 30
0.0
 40
2.0
  1
A
 41
0.7
100
AcDbText
  0
TEXT
  5
196
330
6B
100
AcDbEntity
  8
0
 62
     3
100
AcDbText
 10
2058.166785
 20
320.079691
 30
0.0
 40
2.0
  1
P
 41
0.7
100
AcDbText
  0
TEXT
  5
197
330
6B
100
AcDbEntity
  8
0
 62
     3
100
AcDbText
 10
2060.702072
 20
320.079691
 30
0.0
 40
2.0
  1
P
 41
0.7
100
AcDbText
  0
TEXT
  5
198
330
6B
100
AcDbEntity
  8
0
 62
     3
100
AcDbText
 10
2063.237358
 20
320.079691
 30
0.0
 40
2.0
  1
D
 41
0.7
100
AcDbText
  0
TEXT
  5
199
330
6B
100
AcDbEntity
  8
0
 62
     3
100
AcDbText
 10
2068.606041
 20
320.079691
 30
0.0
 40
2.0
  1
C
 41
0.7
100
AcDbText
  0
TEXT
  5
19A
330
6B
100
AcDbEntity
  8
0
 62
     3
100
AcDbText
 10
2071.141327000001
 20
320.079691
 30
0.0
 40
2.0
  1
H
 41
0.7
100
AcDbText
  0
TEXT
  5
19B
330
6B
100
AcDbEntity
  8
0
 62
     3
100
AcDbText
 10
2073.676613
 20
320.079691
 30
0.0
 40
2.0
  1
C
 41
0.7
100
AcDbText
  0
TEXT
  5
19C
330
6B
100
AcDbEntity
  8
0
 62
     3
100
AcDbText
 10
2076.2119
 20
320.079691
 30
0.0
 40
2.0
  1
K
 41
0.7
100
AcDbText
  0
TEXT
  5
19D
330
6B
100
AcDbEntity
  8
0
 62
     3
100
AcDbText
 10
2081.885866
 20
320.079691
 30
0.0
 40
2.0
  1
DESN
 41
1.216762999999998
100
AcDbText
  0
TEXT
  5
19E
330
6B
100
AcDbEntity
  8
0
 62
     3
100
AcDbText
 10
1996.879507
 20
290.733193
 30
0.0
 40
2.0
  1
NICHIDO IND.CO.LTD
 41
1.274876
100
AcDbText
  0
LINE
  5
19F
330
6B
100
AcDbEntity
  8
0
 62
     3
100
AcDbLine
 10
2007.262537
 20
323.874575
 30
0.0
 11
2007.262537
 21
300.8745749999999
 31
0.0
  0
LINE
  5
1A0
330
6B
100
AcDbEntity
  8
0
 62
     3
100
AcDbLine
 10
2053.621181
 20
323.874575
 30
0.0
 11
2053.621181
 21
284.208852
 31
0.0
  0
LINE
  5
1A5
330
6B
100
AcDbEntity
  8
0
 62
     3
100
AcDbLine
 10
2066.621181
 20
323.874575
 30
0.0
 11
2066.621181
 21
293.8745749999999
 31
0.0
  0
TEXT
  5
1A6
330
6B
100
AcDbEntity
  8
0
 62
     3
100
AcDbText
 10
2054.733626
 20
294.7392609999999
 30
0.0
 40
3.2
  1
作成日
 41
1.017225999999997
100
AcDbText
  0
LINE
  5
1A7
330
6B
100
AcDbEntity
  8
0
 62
     3
100
AcDbLine
 10
2105.320545
 20
323.874575
 30
0.0
 11
1994.017102
 21
323.874575
 31
0.0
  0
LINE
  5
1A8
330
6B
100
AcDbEntity
  8
0
 62
     3
100
AcDbLine
 10
2092.621181
 20
300.8745749999999
 30
0.0
 11
2092.621181
 21
323.874575
 31
0.0
  0
TEXT
  5
1A9
330
6B
100
AcDbEntity
  8
0
 62
     3
100
AcDbText
 10
2095.944984
 20
320.1655089999999
 30
0.0
 40
1.8
  1
D
 41
0.666667
100
AcDbText
  0
TEXT
  5
1AA
330
6B
100
AcDbEntity
  8
0
 62
     3
100
AcDbText
 10
2098.761613
 20
320.1655089999999
 30
0.0
 40
1.8
  1
E
 41
0.666667
100
AcDbText
  0
TEXT
  5
1AB
330
6B
100
AcDbEntity
  8
0
 62
     3
100
AcDbText
 10
2101.578241
 20
320.1655089999999
 30
0.0
 40
1.8
  1
F
 41
0.666667
100
AcDbText
  0
TEXT
  5
1AC
330
6B
100
AcDbEntity
  8
0
 62
     3
100
AcDbText
 10
2095.944984
 20
316.1729559999999
 30
0.0
 40
3.2
  1
製図
 41
1.076369
100
AcDbText
  0
LINE
  5
1AD
330
6B
100
AcDbEntity
  8
0
 62
     3
100
AcDbLine
 10
1994.017102
 20
323.874575
 30
0.0
 11
1994.017102
 21
284.208852
 31
0.0
  0
TEXT
  5
1AE
330
6B
100
AcDbEntity
  8
0
 62
     3
100
AcDbText
 10
1995.393755
 20
284.541318
 30
0.0
 40
5.0
  1
日動工業株式会社
 41
0.833333
100
AcDbText
  0
LINE
  5
1AF
330
6B
100
AcDbEntity
  8
0
 62
     3
100
AcDbLine
 10
2036.899506
 20
307.8745749999999
 30
0.0
 11
2036.899506
 21
284.208852
 31
0.0
  0
LINE
  5
1B0
330
6B
100
AcDbEntity
  8
0
 62
     3
100
AcDbLine
 10
2036.899506
 20
289.0417129999999
 30
0.0
 11
2053.621181
 21
289.0417129999999
 31
0.0
  0
TEXT
  5
1B1
330
6B
100
AcDbEntity
  8
0
 62
     3
100
AcDbText
 10
2037.486108
 20
289.8581439999999
 30
0.0
 40
3.2
  1
出図コード
 41
0.8356860000000001
100
AcDbText
  0
LINE
  5
1B3
330
6B
100
AcDbEntity
  8
0
 62
     3
100
AcDbLine
 10
1994.017102
 20
293.8745749999999
 30
0.0
 11
2105.320545
 21
293.8745749999999
 31
0.0
  0
LINE
  5
1B5
330
6B
100
AcDbEntity
  8
0
 62
     3
100
AcDbLine
 10
1994.017102
 20
314.8745749999999
 30
0.0
 11
2105.320545
 21
314.8745749999999
 31
0.0
  0
LINE
  5
1BB
330
6B
100
AcDbEntity
  8
0
 62
     3
100
AcDbLine
 10
1994.017102
 20
307.8745749999999
 30
0.0
 11
2053.621181
 21
307.8745749999999
 31
0.0
  0
LINE
  5
1C1
330
6B
100
AcDbEntity
  8
0
 62
     3
100
AcDbLine
 10
1994.017102
 20
300.8745749999999
 30
0.0
 11
2105.320545
 21
300.8745749999999
 31
0.0
  0
TEXT
  5
1C2
330
6B
100
AcDbEntity
  8
0
 62
     3
100
AcDbText
 10
2037.353560000001
 20
284.811047
 30
0.0
 40
3.2
  1
ZK-A4Y
 41
0.8112849999999999
100
AcDbText
  0
LINE
  5
1C3
330
6B
100
AcDbEntity
  8
0
 62
     3
100
AcDbLine
 10
1925.320545
 20
561.2088519999998
 30
0.0
 11
1925.320545
 21
284.208852
 31
0.0
  0
LINE
  5
1C4
330
6B
100
AcDbEntity
  8
0
 62
     3
100
AcDbLine
 10
2105.320545
 20
284.208852
 30
0.0
 11
2105.320545
 21
561.2088519999998
 31
0.0
  0
LINE
  5
1C5
330
6B
100
AcDbEntity
  8
0
 62
     3
100
AcDbLine
 10
2105.320545
 20
284.208852
 30
0.0
 11
1925.320545
 21
284.208852
 31
0.0
  0
TEXT
  5
1CA
330
6B
100
AcDbEntity
  8
0
 62
     3
100
AcDbText
 10
1995.834499
 20
320.0441
 30
0.0
 40
2.0
  1
CONPONENTS
 41
0.5331600000000001
100
AcDbText
  0
TEXT
  5
1CB
330
6B
100
AcDbEntity
  8
0
 62
     3
100
AcDbText
 10
1995.484773
 20
301.1119240000001
 30
0.0
 40
3.0
  1
材
 41
0.833333
100
AcDbText
  0
TEXT
  5
1CC
330
6B
100
AcDbEntity
  8
0
 62
     3
100
AcDbText
 10
2003.020415
 20
301.1119240000001
 30
0.0
 40
3.0
  1
質
 41
0.833333
100
AcDbText
  0
TEXT
  5
1CD
330
6B
100
AcDbEntity
  8
0
 62
     3
100
AcDbText
 10
1995.572842999999
 20
311.7364479999999
 30
0.0
 40
2.0
  1
MODEL
 41
1.031072999999999
100
AcDbText
  0
TEXT
  5
1CE
330
6B
100
AcDbEntity
  8
0
 62
     3
100
AcDbText
 10
1995.484773
 20
304.794232
 30
0.0
 40
2.0
  1
MATERIAL
 41
0.659278
100
AcDbText
  0
TEXT
  5
1CF
330
6B
100
AcDbEntity
  8
0
 62
     3
100
AcDbText
 10
2026.792053
 20
301.1119240000001
 30
0.0
 40
3.0
  1
備
 41
0.833333
100
AcDbText
  0
TEXT
  5
1D0
330
6B
100
AcDbEntity
  8
0
 62
     3
100
AcDbText
 10
2033.525055
 20
301.1119240000001
 30
0.0
 40
3.0
  1
考
 41
0.833333
100
AcDbText
  0
TEXT
  5
1D1
330
6B
100
AcDbEntity
  8
0
 62
     3
100
AcDbText
 10
2027.130634912159
 20
304.794232
 30
0.0
 40
2.0
  1
REMARKS
 41
0.675794
100
AcDbText
  0
TEXT
  5
1D2
330
6B
100
AcDbEntity
  8
0
 62
     3
100
AcDbText
 10
1997.074501
 20
297.8741109999999
 30
0.0
 40
2.0
  1
3AD
 41
1.42614
100
AcDbText
  0
TEXT
  5
1D3
330
6B
100
AcDbEntity
  8
0
 62
     3
100
AcDbText
 10
2006.385481
 20
298.039845
 30
0.0
 40
2.0
  1
ANGLE
 41
1.669883999999997
100
AcDbText
  0
TEXT
  5
1D4
330
6B
100
AcDbEntity
  8
0
 62
     3
100
AcDbText
 10
2027.319368
 20
297.6630039999999
 30
0.0
 40
2.0
  1
SCALE
 41
0.7719630000000001
100
AcDbText
  0
TEXT
  5
1D5
330
6B
100
AcDbEntity
  8
0
 62
     3
100
AcDbText
 10
1996.760631
 20
293.8745749999999
 30
0.0
 40
3.0
  1
第
 41
0.833333
100
AcDbText
  0
TEXT
  5
1D6
330
6B
100
AcDbEntity
  8
0
 62
     3
100
AcDbText
 10
2004.547481
 20
293.8745749999999
 30
0.0
 40
3.0
  1
三
 41
0.833333
100
AcDbText
  0
TEXT
  5
1D7
330
6B
100
AcDbEntity
  8
0
 62
     3
100
AcDbText
 10
2012.334331
 20
293.8745749999999
 30
0.0
 40
3.0
  1
角
 41
0.833333
100
AcDbText
  0
TEXT
  5
1D8
330
6B
100
AcDbEntity
  8
0
 62
     3
100
AcDbText
 10
2020.121181
 20
293.8745749999999
 30
0.0
 40
3.0
  1
法
 41
0.833333
100
AcDbText
  0
TEXT
  5
1D9
330
6B
100
AcDbEntity
  8
0
 62
     3
100
AcDbText
 10
2027.182573
 20
294.1630039999999
 30
0.0
 40
3.0
  1
尺
 41
0.833333
100
AcDbText
  0
TEXT
  5
1DA
330
6B
100
AcDbEntity
  8
0
 62
     3
100
AcDbText
 10
2033.915575
 20
294.1630039999999
 30
0.0
 40
3.0
  1
度
 41
0.833333
100
AcDbText
  0
TEXT
  5
1DB
330
6B
100
AcDbEntity
  8
0
 62
     3
100
AcDbText
 10
2056.498845
 20
316.332304
 30
0.0
 40
3.0
  1
承認
 41
1.089472999999999
100
AcDbText
  0
TEXT
  5
1DC
330
6B
100
AcDbEntity
  8
0
 62
     3
100
AcDbText
 10
2069.741726
 20
316.274575
 30
0.0
 40
3.0
  1
検図
 41
0.931761
100
AcDbText
  0
TEXT
  5
1DD
330
6B
100
AcDbEntity
  8
0
 62
     3
100
AcDbText
 10
2082.742122
 20
316.274575
 30
0.0
 40
3.0
  1
設
 41
0.833333
100
AcDbText
  0
TEXT
  5
1DE
330
6B
100
AcDbEntity
  8
0
 62
     3
100
AcDbText
 10
2087.231991
 20
316.274575
 30
0.0
 40
3.0
  1
計
 41
0.833333
100
AcDbText
  0
TEXT
  5
1DF
330
6B
100
AcDbEntity
  8
0
 62
     3
100
AcDbText
 10
1995.765971
 20
315.5633309999999
 30
0.0
 40
3.0
  1
品
 41
0.833333
100
AcDbText
  0
TEXT
  5
1E0
330
6B
100
AcDbEntity
  8
0
 62
     3
100
AcDbText
 10
2003.301613
 20
315.5633309999999
 30
0.0
 40
3.0
  1
名
 41
0.833333
100
AcDbText
  0
TEXT
  5
1E1
330
6B
100
AcDbEntity
  8
0
 62
     3
100
AcDbText
 10
1995.572842999999
 20
308.104188
 30
0.0
 40
3.0
  1
型
 41
0.833333
100
AcDbText
  0
TEXT
  5
1E2
330
6B
100
AcDbEntity
  8
0
 62
     3
100
AcDbText
 10
2003.120934
 20
308.104188
 30
0.0
 40
3.0
  1
式
 41
0.833333
100
AcDbText
  0
LINE
  5
1E3
330
6B
100
AcDbEntity
  8
0
 62
     3
100
AcDbLine
 10
2020.648207
 20
561.2088519999998
 30
0.0
 11
2105.320545
 21
561.2088519999998
 31
0.0
  0
LINE
  5
1E4
330
6B
100
AcDbEntity
  8
0
 62
     3
100
AcDbLine
 10
1987.235461
 20
561.2088519999998
 30
0.0
 11
1925.320545
 21
561.2088519999998
 31
0.0
  0
LINE
  5
1E6
330
6B
100
AcDbEntity
  8
0
100
AcDbLine
 10
2031.825978
 20
556.7034629999998
 30
0.0
 11
2031.825978
 21
541.8534629999998
 31
0.0
  0
LINE
  5
1E7
330
6B
100
AcDbEntity
  8
0
100
AcDbLine
 10
2105.320545
 20
546.803463
 30
0.0
 11
2021.720545
 21
546.803463
 31
0.0
  0
LINE
  5
1E8
330
6B
100
AcDbEntity
  8
0
100
AcDbLine
 10
2093.72302
 20
556.7034629999998
 30
0.0
 11
2093.72302
 21
541.8534629999998
 31
0.0
  0
LINE
  5
1E9
330
6B
100
AcDbEntity
  8
0
100
AcDbLine
 10
2049.431304
 20
556.7034629999998
 30
0.0
 11
2049.431304
 21
541.8534629999998
 31
0.0
  0
LINE
  5
1EB
330
6B
100
AcDbEntity
  8
0
100
AcDbLine
 10
2021.720545
 20
551.7534629999999
 30
0.0
 11
2105.320545
 21
551.7534629999999
 31
0.0
  0
TEXT
  5
1EC
330
6B
100
AcDbEntity
  8
0
 62
     3
100
AcDbText
 10
2041.115138221533
 20
294.762572
 30
0.0
 40
3.2
  1
1/1
  7
高3.2
100
AcDbText
  0
TEXT
  5
1ED
330
6B
100
AcDbEntity
  8
0
 62
     3
100
AcDbText
 10
2039.767866
 20
301.427624
 30
0.0
 40
3.2
  1
交換球
  7
高3.2
100
AcDbText
  0
LINE
  5
1EE
330
6B
100
AcDbEntity
  8
0
 62
     3
100
AcDbLine
 10
2079.621181
 20
323.874575
 30
0.0
 11
2079.621181
 21
329.8745749999999
 31
0.0
  0
LINE
  5
1EF
330
6B
100
AcDbEntity
  8
0
 62
     3
100
AcDbLine
 10
2053.621181
 20
323.874575
 30
0.0
 11
2053.621181
 21
329.8745749999999
 31
0.0
  0
LINE
  5
1F0
330
6B
100
AcDbEntity
  8
0
 62
     3
100
AcDbLine
 10
2105.320545
 20
329.8745749999999
 30
0.0
 11
2053.621181
 21
329.8745749999999
 31
0.0
  0
TEXT
  5
1F1
330
6B
100
AcDbEntity
  8
0
 62
     3
100
AcDbText
 10
2059.61678
 20
324.6709239999999
 30
0.0
 40
4.5
  1
コード
  7
高4.5
100
AcDbText
  0
TEXT
  5
1F2
330
6B
100
AcDbEntity
  8
0
 62
     3
100
AcDbText
 10
2070.20473
 20
294.648991
 30
0.0
 40
3.2
  1
2008.09.18
  7
高3.2
100
AcDbText
  0
LINE
  5
1F3
330
6B
100
AcDbEntity
  8
0
 62
     3
100
AcDbLine
 10
2029.2575
 20
443.547223
 30
0.0
 11
2029.2575
 21
394.547223
 31
0.0
  0
TEXT
  5
1F4
330
6B
100
AcDbEntity
  8
0
 62
     3
100
AcDbText
 10
2035.414010514229
 20
446.0012049999998
 30
0.0
 40
4.5
  1
主　　　仕　　　様
  7
高4.5
100
AcDbText
  0
TEXT
  5
1F5
330
6B
100
AcDbEntity
  8
0
 62
     3
100
AcDbText
 10
2031.2575
 20
437.547223
 30
0.0
 40
4.5
  1
型　　　式
 41
0.8
  7
高4.5
100
AcDbText
  0
TEXT
  5
1F6
330
6B
100
AcDbEntity
  8
0
 62
     3
100
AcDbText
 10
2031.2575
 20
430.547223
 30
0.0
 40
4.5
  1
定格　電圧
 41
0.8
  7
高4.5
100
AcDbText
  0
TEXT
  5
1F7
330
6B
100
AcDbEntity
  8
0
 62
     3
100
AcDbText
 10
2031.2575
 20
423.547223
 30
0.0
 40
4.5
  1
定格消費電力
 41
0.8
  7
高4.5
100
AcDbText
  0
TEXT
  5
1F8
330
6B
100
AcDbEntity
  8
0
 62
     3
100
AcDbText
 10
2031.2575
 20
409.5472229999998
 30
0.0
 40
4.5
  1
寿　　　命
 41
0.8
  7
高4.5
100
AcDbText
  0
TEXT
  5
1F9
330
6B
100
AcDbEntity
  8
0
 62
     3
100
AcDbText
 10
2031.2575
 20
402.547223
 30
0.0
 40
4.5
  1
口　　　金
 41
0.8
  7
高4.5
100
AcDbText
  0
TEXT
  5
1FA
330
6B
100
AcDbEntity
  8
0
 62
     3
100
AcDbText
 10
2031.2575
 20
395.547223
 30
0.0
 40
4.5
  1
質　　　量
 41
0.8
  7
高4.5
100
AcDbText
  0
LINE
  5
1FB
330
6B
100
AcDbEntity
  8
0
 62
     3
100
AcDbLine
 10
2088.544732668085
 20
394.547223
 30
0.0
 11
2088.544732668085
 21
443.547223
 31
0.0
  0
LINE
  5
1FC
330
6B
100
AcDbEntity
  8
0
100
AcDbLine
 10
2058.641853151213
 20
443.547223
 30
0.0
 11
2058.641853151213
 21
394.547223
 31
0.0
  0
LINE
  5
1FD
330
6B
100
AcDbEntity
  8
0
100
AcDbLine
 10
2035.414010514229
 20
445.0012049999998
 30
0.0
 11
2082.988213751573
 21
445.0012049999998
 31
0.0
  0
LINE
  5
1FE
330
6B
100
AcDbEntity
  8
0
 62
     3
100
AcDbLine
 10
2029.2575
 20
443.547223
 30
0.0
 11
2088.544732668085
 21
443.547223
 31
0.0
  0
LINE
  5
1FF
330
6B
100
AcDbEntity
  8
0
 62
     3
100
AcDbLine
 10
2029.2575
 20
394.547223
 30
0.0
 11
2088.544732668085
 21
394.547223
 31
0.0
  0
LINE
  5
200
330
6B
100
AcDbEntity
  8
0
100
AcDbLine
 10
2029.2575
 20
436.547223
 30
0.0
 11
2088.544732668085
 21
436.547223
 31
0.0
  0
LINE
  5
201
330
6B
100
AcDbEntity
  8
0
100
AcDbLine
 10
2029.2575
 20
429.547223
 30
0.0
 11
2088.544732668085
 21
429.547223
 31
0.0
  0
LINE
  5
202
330
6B
100
AcDbEntity
  8
0
100
AcDbLine
 10
2029.2575
 20
422.547223
 30
0.0
 11
2088.544732668085
 21
422.547223
 31
0.0
  0
LINE
  5
203
330
6B
100
AcDbEntity
  8
0
100
AcDbLine
 10
2029.2575
 20
415.5472229999999
 30
0.0
 11
2088.544732668085
 21
415.5472229999999
 31
0.0
  0
LINE
  5
204
330
6B
100
AcDbEntity
  8
0
100
AcDbLine
 10
2029.2575
 20
408.5472229999998
 30
0.0
 11
2088.544732668085
 21
408.5472229999998
 31
0.0
  0
LINE
  5
205
330
6B
100
AcDbEntity
  8
0
100
AcDbLine
 10
2029.2575
 20
401.5472229999998
 30
0.0
 11
2088.544732668085
 21
401.5472229999998
 31
0.0
  0
TEXT
  5
206
330
6B
100
AcDbEntity
  8
0
 62
     3
100
AcDbText
 10
2031.2575
 20
416.5472229999998
 30
0.0
 40
4.5
  1
全　光　束
 41
0.8
  7
高4.5
100
AcDbText
  0
TEXT
  5
207
330
6B
100
AcDbEntity
  8
0
 62
     3
100
AcDbText
 10
2060.641853151213
 20
430.547223
 30
0.0
 40
4.5
  1
100V
 41
0.8
  7
高4.5
100
AcDbText
  0
TEXT
  5
208
330
6B
100
AcDbEntity
  8
0
 62
     3
100
AcDbText
 10
2060.641853151213
 20
409.5472229999998
 30
0.0
 40
4.5
  1
約6000時間
 41
0.8
  7
高4.5
100
AcDbText
  0
TEXT
  5
209
330
6B
100
AcDbEntity
  8
0
 62
     3
100
AcDbText
 10
2060.641853151213
 20
402.547223
 30
0.0
 40
4.5
  1
E26
 41
0.8
  7
高4.5
100
AcDbText
  0
LINE
  5
20A
330
6B
100
AcDbEntity
  8
0
100
AcDbLine
 10
2026.538249
 20
551.0142179999998
 30
0.0
 11
2024.638249
 21
547.7233209999998
 31
0.0
  0
LINE
  5
20B
330
6B
100
AcDbEntity
  8
0
100
AcDbLine
 10
2026.538249
 20
551.0142179999998
 30
0.0
 11
2028.438249
 21
547.7233209999998
 31
0.0
  0
LINE
  5
20C
330
6B
100
AcDbEntity
  8
0
100
AcDbLine
 10
2024.638249
 20
547.7233209999998
 30
0.0
 11
2028.438249
 21
547.7233209999998
 31
0.0
  0
LINE
  5
20D
330
6B
100
AcDbEntity
  8
0
100
AcDbLine
 10
2026.538249
 20
545.8580069999998
 30
0.0
 11
2024.638249
 21
542.5671109999998
 31
0.0
  0
LINE
  5
20E
330
6B
100
AcDbEntity
  8
0
100
AcDbLine
 10
2026.538249
 20
545.8580069999998
 30
0.0
 11
2028.438249
 21
542.5671109999998
 31
0.0
  0
LINE
  5
20F
330
6B
100
AcDbEntity
  8
0
100
AcDbLine
 10
2024.638249
 20
542.5671109999998
 30
0.0
 11
2028.438249
 21
542.5671109999998
 31
0.0
  0
LINE
  5
210
330
6B
100
AcDbEntity
  8
0
 62
     3
100
AcDbLine
 10
1975.845503
 20
367.498878
 30
0.0
 11
2001.845503
 21
367.498878
 31
0.0
  0
LINE
  5
211
330
6B
100
AcDbEntity
  8
0
100
AcDbLine
 10
2000.845503
 20
363.498878
 30
0.0
 11
1976.845503
 21
363.498878
 31
0.0
  0
LINE
  5
212
330
6B
100
AcDbEntity
  8
0
100
AcDbLine
 10
1985.178836
 20
342.498878
 30
0.0
 11
1992.51217
 21
342.498878
 31
0.0
  0
LINE
  5
213
330
6B
100
AcDbEntity
  8
0
100
AcDbLine
 10
1985.178836
 20
343.832212
 30
0.0
 11
1992.51217
 21
343.832212
 31
0.0
  0
LINE
  5
214
330
6B
100
AcDbEntity
  8
0
100
AcDbLine
 10
1997.130972
 20
346.498878
 30
0.0
 11
1980.560034
 21
346.498878
 31
0.0
  0
LINE
  5
215
330
6B
100
AcDbEntity
  8
0
100
AcDbLine
 10
1985.178836
 20
343.832212
 30
0.0
 11
1985.178836
 21
342.498878
 31
0.0
  0
LINE
  5
216
330
6B
100
AcDbEntity
  8
0
100
AcDbLine
 10
1992.51217
 20
343.832212
 30
0.0
 11
1992.51217
 21
342.498878
 31
0.0
  0
LINE
  5
217
330
6B
100
AcDbEntity
  8
0
100
AcDbLine
 10
1977.51217
 20
363.498878
 30
0.0
 11
1977.51217
 21
363.080277
 31
0.0
  0
LINE
  5
218
330
6B
100
AcDbEntity
  8
0
100
AcDbLine
 10
1977.51217
 20
359.887411
 30
0.0
 11
1977.51217
 21
359.5377759999998
 31
0.0
  0
LINE
  5
219
330
6B
100
AcDbEntity
  8
0
100
AcDbLine
 10
1977.51217
 20
355.887411
 30
0.0
 11
1977.51217
 21
355.5377759999998
 31
0.0
  0
LINE
  5
21A
330
6B
100
AcDbEntity
  8
0
100
AcDbLine
 10
1977.51217
 20
351.887411
 30
0.0
 11
1977.51217
 21
351.537776
 31
0.0
  0
ARC
  5
21B
330
6B
100
AcDbEntity
  8
0
100
AcDbCircle
 10
1978.845503
 20
349.028364
 30
0.0
 40
1.333333
100
AcDbArc
 50
207.3771129999999
 51
240.0
  0
LINE
  5
21C
330
6B
100
AcDbEntity
  8
0
100
AcDbLine
 10
2000.178836
 20
361.95937
 30
0.0
 11
2000.178836
 21
361.538188
 31
0.0
  0
LINE
  5
21D
330
6B
100
AcDbEntity
  8
0
100
AcDbLine
 10
2000.178836
 20
357.8869999999998
 30
0.0
 11
2000.178836
 21
357.538188
 31
0.0
  0
LINE
  5
21E
330
6B
100
AcDbEntity
  8
0
100
AcDbLine
 10
2000.178836
 20
353.8869999999998
 30
0.0
 11
2000.178836
 21
353.538188
 31
0.0
  0
LINE
  5
21F
330
6B
100
AcDbEntity
  8
0
100
AcDbLine
 10
2000.178836
 20
350.345926
 30
0.0
 11
2000.178836
 21
349.021699
 31
0.0
  0
ARC
  5
220
330
6B
100
AcDbEntity
  8
0
100
AcDbCircle
 10
1998.845503
 20
349.028364
 30
0.0
 40
1.333333
100
AcDbArc
 50
300.0
 51
0.0
  0
ARC
  5
221
330
6B
100
AcDbEntity
  8
0
100
AcDbCircle
 10
1988.845503
 20
352.248878
 30
0.0
 40
10.416667
100
AcDbArc
 50
249.390307
 51
290.609693
  0
LINE
  5
222
330
6B
100
AcDbEntity
  8
0
100
AcDbLine
 10
1992.51217
 20
343.832212
 30
0.0
 11
1999.51217
 21
347.873664
 31
0.0
  0
LINE
  5
223
330
6B
100
AcDbEntity
  8
0
100
AcDbLine
 10
1985.178836
 20
343.832212
 30
0.0
 11
1978.178836
 21
347.873664
 31
0.0
  0
ARC
  5
224
330
6B
100
AcDbEntity
  8
0
100
AcDbCircle
 10
1977.184854
 20
349.712594
 30
0.0
 40
1.333333
100
AcDbArc
 50
95.40479299999999
 51
274.900687
  0
ARC
  5
225
330
6B
100
AcDbEntity
  8
0
100
AcDbCircle
 10
1977.01217
 20
351.537776
 30
0.0
 40
0.5
100
AcDbArc
 50
275.404793
 51
0.0
  0
ARC
  5
226
330
6B
100
AcDbEntity
  8
0
100
AcDbCircle
 10
1977.184854
 20
353.712594
 30
0.0
 40
1.333333
100
AcDbArc
 50
95.40479299999999
 51
264.5952069999999
  0
ARC
  5
227
330
6B
100
AcDbEntity
  8
0
100
AcDbCircle
 10
1977.01217
 20
351.887411
 30
0.0
 40
0.5
100
AcDbArc
 50
0.0
 51
84.59520699999998
  0
ARC
  5
228
330
6B
100
AcDbEntity
  8
0
100
AcDbCircle
 10
1977.01217
 20
355.5377759999998
 30
0.0
 40
0.5
100
AcDbArc
 50
275.404793
 51
0.0
  0
ARC
  5
229
330
6B
100
AcDbEntity
  8
0
100
AcDbCircle
 10
2000.510556
 20
351.712594
 30
0.0
 40
1.333333
100
AcDbArc
 50
274.900687
 51
84.73345899999998
  0
ARC
  5
22A
330
6B
100
AcDbEntity
  8
0
100
AcDbCircle
 10
2000.678836
 20
353.538188
 30
0.0
 40
0.5
100
AcDbArc
 50
180.0
 51
264.733459
  0
ARC
  5
22B
330
6B
100
AcDbEntity
  8
0
100
AcDbCircle
 10
2000.510556
 20
355.712594
 30
0.0
 40
1.333333
100
AcDbArc
 50
275.266541
 51
84.73345899999998
  0
ARC
  5
22C
330
6B
100
AcDbEntity
  8
0
100
AcDbCircle
 10
2000.678836
 20
353.8869999999998
 30
0.0
 40
0.5
100
AcDbArc
 50
95.266541
 51
180.0
  0
ARC
  5
22D
330
6B
100
AcDbEntity
  8
0
100
AcDbCircle
 10
2000.678836
 20
357.538188
 30
0.0
 40
0.5
100
AcDbArc
 50
180.0
 51
264.733459
  0
ARC
  5
22E
330
6B
100
AcDbEntity
  8
0
100
AcDbCircle
 10
2000.510556
 20
359.712594
 30
0.0
 40
1.333333
100
AcDbArc
 50
275.266541
 51
84.73345899999998
  0
ARC
  5
22F
330
6B
100
AcDbEntity
  8
0
100
AcDbCircle
 10
2000.678836
 20
357.8869999999998
 30
0.0
 40
0.5
100
AcDbArc
 50
95.266541
 51
180.0
  0
ARC
  5
230
330
6B
100
AcDbEntity
  8
0
100
AcDbCircle
 10
2000.678836
 20
361.538188
 30
0.0
 40
0.5
100
AcDbArc
 50
180.0
 51
264.733459
  0
ARC
  5
231
330
6B
100
AcDbEntity
  8
0
100
AcDbCircle
 10
2000.620789
 20
363.002568
 30
0.0
 40
0.544812
100
AcDbArc
 50
273.184863
 51
65.640435
  0
ARC
  5
232
330
6B
100
AcDbEntity
  8
0
100
AcDbCircle
 10
2000.678836
 20
361.95937
 30
0.0
 40
0.5
100
AcDbArc
 50
93.18486300000001
 51
180.0
  0
ARC
  5
233
330
6B
100
AcDbEntity
  8
0
100
AcDbCircle
 10
1977.184854
 20
361.712594
 30
0.0
 40
1.333333
100
AcDbArc
 50
95.079413
 51
264.5952069999999
  0
ARC
  5
234
330
6B
100
AcDbEntity
  8
0
100
AcDbCircle
 10
1977.01217
 20
359.887411
 30
0.0
 40
0.5
100
AcDbArc
 50
0.0
 51
84.59520699999998
  0
ARC
  5
235
330
6B
100
AcDbEntity
  8
0
100
AcDbCircle
 10
1977.184854
 20
357.712594
 30
0.0
 40
1.333333
100
AcDbArc
 50
95.40479299999999
 51
264.5952069999999
  0
ARC
  5
236
330
6B
100
AcDbEntity
  8
0
100
AcDbCircle
 10
1977.01217
 20
355.887411
 30
0.0
 40
0.5
100
AcDbArc
 50
0.0
 51
84.59520699999998
  0
ARC
  5
237
330
6B
100
AcDbEntity
  8
0
100
AcDbCircle
 10
1977.01217
 20
359.5377759999998
 30
0.0
 40
0.5
100
AcDbArc
 50
275.404793
 51
0.0
  0
LINE
  5
238
330
6B
100
AcDbEntity
  8
0
100
AcDbLine
 10
2000.178836
 20
349.021699
 30
0.0
 11
1979.390787
 21
347.173943
 31
0.0
  0
LINE
  5
239
330
6B
100
AcDbEntity
  8
0
100
AcDbLine
 10
1982.221612
 20
363.498878
 30
0.0
 11
1977.066806
 21
363.040691
 31
0.0
  0
LINE
  5
23A
330
6B
100
AcDbEntity
  8
0
100
AcDbLine
 10
2000.628605
 20
362.457812
 30
0.0
 11
1977.302903
 21
360.384496
 31
0.0
  0
LINE
  5
23B
330
6B
100
AcDbEntity
  8
0
100
AcDbLine
 10
2000.396651
 20
361.041053
 30
0.0
 11
1977.070948999999
 21
359.041053
 31
0.0
  0
LINE
  5
23C
330
6B
100
AcDbEntity
  8
0
100
AcDbLine
 10
2000.624461
 20
358.384135
 30
0.0
 11
1977.298759
 21
356.384135
 31
0.0
  0
LINE
  5
23D
330
6B
100
AcDbEntity
  8
0
100
AcDbLine
 10
2000.396651
 20
357.041053
 30
0.0
 11
1977.070948999999
 21
355.041053
 31
0.0
  0
LINE
  5
23E
330
6B
100
AcDbEntity
  8
0
100
AcDbLine
 10
2000.624461
 20
354.384135
 30
0.0
 11
1977.298759
 21
352.384135
 31
0.0
  0
LINE
  5
23F
330
6B
100
AcDbEntity
  8
0
100
AcDbLine
 10
2000.396651
 20
353.041053
 30
0.0
 11
1977.070948999999
 21
351.041053
 31
0.0
  0
LINE
  5
240
330
6B
100
AcDbEntity
  8
0
100
AcDbLine
 10
2000.624461
 20
350.384135
 30
0.0
 11
1977.298759
 21
348.384135
 31
0.0
  0
LINE
  5
241
330
6B
100
AcDbEntity
  8
0
100
AcDbLine
 10
1976.845503
 20
367.498878
 30
0.0
 11
1976.845503
 21
363.498878
 31
0.0
  0
LINE
  5
242
330
6B
100
AcDbEntity
  8
0
100
AcDbLine
 10
2000.845503
 20
367.498878
 30
0.0
 11
2000.845503
 21
363.498878
 31
0.0
  0
LINE
  5
243
330
6B
100
AcDbEntity
  8
0
100
AcDbLine
 10
1996.345503
 20
428.520233
 30
0.0
 11
1981.345503
 21
428.520233
 31
0.0
  0
LINE
  5
244
330
6B
100
AcDbEntity
  8
0
100
AcDbLine
 10
1996.345503
 20
413.520233
 30
0.0
 11
1981.345503
 21
413.520233
 31
0.0
  0
LINE
  5
245
330
6B
100
AcDbEntity
  8
0
100
AcDbLine
 10
1998.595503
 20
402.741708
 30
0.0
 11
1979.095503
 21
402.741708
 31
0.0
  0
LINE
  5
246
330
6B
100
AcDbEntity
  8
0
100
AcDbLine
 10
1998.595503
 20
392.430298
 30
0.0
 11
1979.095503
 21
392.430298
 31
0.0
  0
LINE
  5
247
330
6B
100
AcDbEntity
  8
0
100
AcDbLine
 10
1998.595503
 20
440.857099
 30
0.0
 11
1979.095503
 21
440.857099
 31
0.0
  0
LINE
  5
248
330
6B
100
AcDbEntity
  8
0
100
AcDbLine
 10
1998.595503
 20
450.800246
 30
0.0
 11
1979.095503
 21
450.800246
 31
0.0
  0
LINE
  5
249
330
6B
100
AcDbEntity
  8
0
100
AcDbLine
 10
1996.345503
 20
428.520233
 30
0.0
 11
1996.345503
 21
413.520233
 31
0.0
  0
LINE
  5
24A
330
6B
100
AcDbEntity
  8
0
100
AcDbLine
 10
1981.345503
 20
428.520233
 30
0.0
 11
1981.345503
 21
413.520233
 31
0.0
  0
LINE
  5
24B
330
6B
100
AcDbEntity
  8
0
100
AcDbLine
 10
1998.595503
 20
411.270233
 30
0.0
 11
1996.345503
 21
413.520233
 31
0.0
  0
LINE
  5
24C
330
6B
100
AcDbEntity
  8
0
100
AcDbLine
 10
1998.595503
 20
411.270233
 30
0.0
 11
1998.595503
 21
392.430298
 31
0.0
  0
LINE
  5
24D
330
6B
100
AcDbEntity
  8
0
100
AcDbLine
 10
1979.095503
 20
411.270233
 30
0.0
 11
1979.095503
 21
392.430298
 31
0.0
  0
LINE
  5
24E
330
6B
100
AcDbEntity
  8
0
100
AcDbLine
 10
1979.095503
 20
430.770233
 30
0.0
 11
1979.095503
 21
450.800246
 31
0.0
  0
LINE
  5
24F
330
6B
100
AcDbEntity
  8
0
100
AcDbLine
 10
1998.595503
 20
430.770233
 30
0.0
 11
1998.595503
 21
450.800246
 31
0.0
  0
LINE
  5
250
330
6B
100
AcDbEntity
  8
0
100
AcDbLine
 10
1979.095503
 20
411.270233
 30
0.0
 11
1981.345503
 21
413.520233
 31
0.0
  0
LINE
  5
251
330
6B
100
AcDbEntity
  8
0
100
AcDbLine
 10
1996.345503
 20
428.520233
 30
0.0
 11
1998.595503
 21
430.770233
 31
0.0
  0
LINE
  5
252
330
6B
100
AcDbEntity
  8
0
100
AcDbLine
 10
1981.345503
 20
428.520233
 30
0.0
 11
1979.095503
 21
430.770233
 31
0.0
  0
TEXT
  5
253
330
6B
100
AcDbEntity
  8
0
 62
     3
100
AcDbText
 10
2060.641853151213
 20
437.547223
 30
0.0
 40
4.5
  1
M175W
 41
0.8
  7
高4.5
100
AcDbText
  0
TEXT
  5
254
330
6B
100
AcDbEntity
  8
0
 62
     3
100
AcDbText
 10
2060.641853151213
 20
423.547223
 30
0.0
 40
4.5
  1
225W
 41
0.8
  7
高4.5
100
AcDbText
  0
TEXT
  5
255
330
6B
100
AcDbEntity
  8
0
 62
     3
100
AcDbText
 10
2060.641853151213
 20
416.5472229999998
 30
0.0
 40
4.5
  1
14000Lm
 41
0.8
  7
高4.5
100
AcDbText
  0
TEXT
  5
256
330
6B
100
AcDbEntity
  8
0
 62
     3
100
AcDbText
 10
2060.641853151213
 20
395.547223
 30
0.0
 40
4.5
  1
65g
 41
0.8
  7
高4.5
100
AcDbText
  0
TEXT
  5
257
330
6B
100
AcDbEntity
  8
0
 62
     3
100
AcDbText
 10
2008.949805800885
 20
316.332848
 30
0.0
 40
4.5
  1
メタルハライドライト
 41
0.8
  7
高4.5
100
AcDbText
  0
TEXT
  5
258
330
6B
100
AcDbEntity
  8
0
 62
     3
100
AcDbText
 10
2084.371447521635
 20
324.518712
 30
0.0
 40
4.5
  1
6850
  7
高4.5
100
AcDbText
  0
TEXT
  5
259
330
6B
100
AcDbEntity
  8
0
 62
     3
100
AcDbText
 10
2009.813015
 20
308.7450689999999
 30
0.0
 40
4.5
  1
M175W-100V
  7
高4.5
100
AcDbText
  0
TEXT
  5
25A
330
6B
100
AcDbEntity
  8
0
 62
     3
100
AcDbText
 10
2056.05420471336
 20
285.0269125273217
 30
0.0
 40
6.299999999999998
  1
M175W-100V
 41
0.8
  7
高6.3
100
AcDbText
  0
LINE
  5
25B
330
6B
100
AcDbEntity
  8
0
 62
     3
100
AcDbLine
 10
2006.845503
 20
372.498878
 30
0.0
 11
2006.845503
 21
392.821259
 31
0.0
  0
LINE
  5
25C
330
6B
100
AcDbEntity
  8
0
 62
     3
100
AcDbLine
 10
1970.845503
 20
372.498878
 30
0.0
 11
1970.845503
 21
392.821259
 31
0.0
  0
ARC
  5
25D
330
6B
100
AcDbEntity
  8
0
 62
     3
100
AcDbCircle
 10
2001.845503
 20
372.498878
 30
0.0
 40
5.0
100
AcDbArc
 50
270.0
 51
0.0
  0
ARC
  5
25E
330
6B
100
AcDbEntity
  8
0
 62
     3
100
AcDbCircle
 10
1975.845503
 20
372.498878
 30
0.0
 40
5.0
100
AcDbArc
 50
180.0
 51
270.0
  0
ARC
  5
25F
330
6B
100
AcDbEntity
  8
0
 62
     3
100
AcDbCircle
 10
1943.800687
 20
428.71139
 30
0.0
 40
72.544816
100
AcDbArc
 50
330.348021
 51
36.858098
  0
ARC
  5
260
330
6B
100
AcDbEntity
  8
0
 62
     3
100
AcDbCircle
 10
2033.890319
 20
428.71139
 30
0.0
 40
72.544816
100
AcDbArc
 50
143.141902
 51
209.651979
  0
LINE
  5
261
330
6B
100
AcDbEntity
  8
0
  6
CENTER
100
AcDbLine
 10
1988.845503
 20
484.48975
 30
0.0
 11
1988.845503
 21
338.712133
 31
0.0
  0
LINE
  5
802
330
6B
100
AcDbEntity
  8
0
 62
     2
100
AcDbLine
 10
2001.143512
 20
561.666734
 30
0.0
 11
2001.124885
 21
561.7860019999998
 31
0.0
  0
LINE
  5
803
330
6B
100
AcDbEntity
  8
0
 62
     2
100
AcDbLine
 10
2001.124885
 20
561.7860019999998
 30
0.0
 11
2001.102514
 21
561.900207
 31
0.0
  0
LINE
  5
804
330
6B
100
AcDbEntity
  8
0
 62
     2
100
AcDbLine
 10
2001.102514
 20
561.900207
 30
0.0
 11
2001.076572
 21
562.0084659999998
 31
0.0
  0
LINE
  5
805
330
6B
100
AcDbEntity
  8
0
 62
     2
100
AcDbLine
 10
2001.076572
 20
562.0084659999998
 30
0.0
 11
2001.04726
 21
562.1099429999998
 31
0.0
  0
LINE
  5
806
330
6B
100
AcDbEntity
  8
0
 62
     2
100
AcDbLine
 10
2001.04726
 20
562.1099429999998
 30
0.0
 11
2001.014804
 21
562.203852
 31
0.0
  0
LINE
  5
807
330
6B
100
AcDbEntity
  8
0
 62
     2
100
AcDbLine
 10
2001.014804
 20
562.203852
 30
0.0
 11
2000.979455
 21
562.289469
 31
0.0
  0
LINE
  5
808
330
6B
100
AcDbEntity
  8
0
 62
     2
100
AcDbLine
 10
2000.979455
 20
562.289469
 30
0.0
 11
2000.941487
 21
562.366132
 31
0.0
  0
LINE
  5
809
330
6B
100
AcDbEntity
  8
0
 62
     2
100
AcDbLine
 10
2000.941487
 20
562.366132
 30
0.0
 11
2000.901193
 21
562.4332469999997
 31
0.0
  0
LINE
  5
80A
330
6B
100
AcDbEntity
  8
0
 62
     2
100
AcDbLine
 10
2000.901193
 20
562.4332469999997
 30
0.0
 11
2000.858884
 21
562.4902959999998
 31
0.0
  0
LINE
  5
80B
330
6B
100
AcDbEntity
  8
0
 62
     2
100
AcDbLine
 10
2000.858884
 20
562.4902959999998
 30
0.0
 11
2000.814888
 21
562.536839
 31
0.0
  0
LINE
  5
80C
330
6B
100
AcDbEntity
  8
0
 62
     2
100
AcDbLine
 10
2000.814888
 20
562.536839
 30
0.0
 11
2000.769544
 21
562.572515
 31
0.0
  0
LINE
  5
80D
330
6B
100
AcDbEntity
  8
0
 62
     2
100
AcDbLine
 10
2000.769544
 20
562.572515
 30
0.0
 11
2000.723202
 21
562.5970489999998
 31
0.0
  0
LINE
  5
80E
330
6B
100
AcDbEntity
  8
0
 62
     2
100
AcDbLine
 10
2000.723202
 20
562.5970489999998
 30
0.0
 11
2000.676223
 21
562.6102509999998
 31
0.0
  0
LINE
  5
80F
330
6B
100
AcDbEntity
  8
0
 62
     2
100
AcDbLine
 10
2000.676223
 20
562.6102509999998
 30
0.0
 11
2000.628967
 21
562.612019
 31
0.0
  0
LINE
  5
810
330
6B
100
AcDbEntity
  8
0
 62
     2
100
AcDbLine
 10
2000.628967
 20
562.612019
 30
0.0
 11
2000.581801
 21
562.6023389999998
 31
0.0
  0
LINE
  5
811
330
6B
100
AcDbEntity
  8
0
 62
     2
100
AcDbLine
 10
2000.581801
 20
562.6023389999998
 30
0.0
 11
2000.535089
 21
562.5812859999999
 31
0.0
  0
LINE
  5
812
330
6B
100
AcDbEntity
  8
0
 62
     2
100
AcDbLine
 10
2000.535089
 20
562.5812859999999
 30
0.0
 11
2000.489192
 21
562.549024
 31
0.0
  0
LINE
  5
813
330
6B
100
AcDbEntity
  8
0
 62
     2
100
AcDbLine
 10
2000.489192
 20
562.549024
 30
0.0
 11
2000.444465
 21
562.5058
 31
0.0
  0
LINE
  5
814
330
6B
100
AcDbEntity
  8
0
 62
     2
100
AcDbLine
 10
2000.444465
 20
562.5058
 30
0.0
 11
2000.401254
 21
562.4519499999999
 31
0.0
  0
LINE
  5
815
330
6B
100
AcDbEntity
  8
0
 62
     2
100
AcDbLine
 10
2000.401254
 20
562.4519499999999
 30
0.0
 11
2000.359892
 21
562.3878889999998
 31
0.0
  0
LINE
  5
816
330
6B
100
AcDbEntity
  8
0
 62
     2
100
AcDbLine
 10
2000.359892
 20
562.3878889999998
 30
0.0
 11
2000.3207
 21
562.314113
 31
0.0
  0
LINE
  5
817
330
6B
100
AcDbEntity
  8
0
 62
     2
100
AcDbLine
 10
2000.3207
 20
562.314113
 30
0.0
 11
2000.28398
 21
562.2311929999998
 31
0.0
  0
LINE
  5
818
330
6B
100
AcDbEntity
  8
0
 62
     2
100
AcDbLine
 10
2000.28398
 20
562.2311929999998
 30
0.0
 11
2000.250016
 21
562.139768
 31
0.0
  0
LINE
  5
819
330
6B
100
AcDbEntity
  8
0
 62
     2
100
AcDbLine
 10
2000.250016
 20
562.139768
 30
0.0
 11
2000.21907
 21
562.040545
 31
0.0
  0
LINE
  5
81A
330
6B
100
AcDbEntity
  8
0
 62
     2
100
AcDbLine
 10
2000.21907
 20
562.040545
 30
0.0
 11
2000.191383
 21
561.934293
 31
0.0
  0
LINE
  5
81B
330
6B
100
AcDbEntity
  8
0
 62
     2
100
AcDbLine
 10
2000.191383
 20
561.934293
 30
0.0
 11
2000.167167
 21
561.8218309999998
 31
0.0
  0
LINE
  5
81C
330
6B
100
AcDbEntity
  8
0
 62
     2
100
AcDbLine
 10
2000.167167
 20
561.8218309999998
 30
0.0
 11
2000.146611
 21
561.704029
 31
0.0
  0
LINE
  5
81D
330
6B
100
AcDbEntity
  8
0
 62
     2
100
AcDbLine
 10
2000.146611
 20
561.704029
 30
0.0
 11
2000.129872
 21
561.581798
 31
0.0
  0
LINE
  5
81E
330
6B
100
AcDbEntity
  8
0
 62
     2
100
AcDbLine
 10
2000.129872
 20
561.581798
 30
0.0
 11
2000.11708
 21
561.456082
 31
0.0
  0
LINE
  5
81F
330
6B
100
AcDbEntity
  8
0
 62
     2
100
AcDbLine
 10
2000.11708
 20
561.456082
 30
0.0
 11
2000.108335
 21
561.327853
 31
0.0
  0
LINE
  5
820
330
6B
100
AcDbEntity
  8
0
 62
     2
100
AcDbLine
 10
2000.108335
 20
561.327853
 30
0.0
 11
2000.103703
 21
561.198103
 31
0.0
  0
LINE
  5
821
330
6B
100
AcDbEntity
  8
0
 62
     2
100
AcDbLine
 10
2000.103703
 20
561.198103
 30
0.0
 11
2000.103221
 21
561.067833
 31
0.0
  0
LINE
  5
822
330
6B
100
AcDbEntity
  8
0
 62
     2
100
AcDbLine
 10
2000.103221
 20
561.067833
 30
0.0
 11
2000.106893
 21
560.938052
 31
0.0
  0
LINE
  5
823
330
6B
100
AcDbEntity
  8
0
 62
     2
100
AcDbLine
 10
2000.106893
 20
560.938052
 30
0.0
 11
2000.114689
 21
560.8097619999998
 31
0.0
  0
LINE
  5
824
330
6B
100
AcDbEntity
  8
0
 62
     2
100
AcDbLine
 10
2000.114689
 20
560.8097619999998
 30
0.0
 11
2000.12655
 21
560.683955
 31
0.0
  0
LINE
  5
825
330
6B
100
AcDbEntity
  8
0
 62
     2
100
AcDbLine
 10
2000.12655
 20
560.683955
 30
0.0
 11
2000.142383
 21
560.561604
 31
0.0
  0
LINE
  5
826
330
6B
100
AcDbEntity
  8
0
 62
     2
100
AcDbLine
 10
2000.142383
 20
560.561604
 30
0.0
 11
2000.162068
 21
560.443653
 31
0.0
  0
LINE
  5
827
330
6B
100
AcDbEntity
  8
0
 62
     2
100
AcDbLine
 10
2000.162068
 20
560.443653
 30
0.0
 11
2000.185451
 21
560.3310150000002
 31
0.0
  0
LINE
  5
828
330
6B
100
AcDbEntity
  8
0
 62
     2
100
AcDbLine
 10
2000.185451
 20
560.3310150000002
 30
0.0
 11
2000.212351
 21
560.2245599999998
 31
0.0
  0
LINE
  5
829
330
6B
100
AcDbEntity
  8
0
 62
     2
100
AcDbLine
 10
2000.212351
 20
560.2245599999998
 30
0.0
 11
2000.242561
 21
560.125111
 31
0.0
  0
LINE
  5
82A
330
6B
100
AcDbEntity
  8
0
 62
     2
100
AcDbLine
 10
2000.242561
 20
560.125111
 30
0.0
 11
2000.275848
 21
560.0334379999998
 31
0.0
  0
LINE
  5
82B
330
6B
100
AcDbEntity
  8
0
 62
     2
100
AcDbLine
 10
2000.275848
 20
560.0334379999998
 30
0.0
 11
2000.311953
 21
559.950247
 31
0.0
  0
LINE
  5
82C
330
6B
100
AcDbEntity
  8
0
 62
     2
100
AcDbLine
 10
2000.311953
 20
559.950247
 30
0.0
 11
2000.350598
 21
559.8761839999998
 31
0.0
  0
LINE
  5
82D
330
6B
100
AcDbEntity
  8
0
 62
     2
100
AcDbLine
 10
2000.350598
 20
559.8761839999998
 30
0.0
 11
2000.391485
 21
559.811819
 31
0.0
  0
LINE
  5
82E
330
6B
100
AcDbEntity
  8
0
 62
     2
100
AcDbLine
 10
2000.391485
 20
559.811819
 30
0.0
 11
2000.434296
 21
559.75765
 31
0.0
  0
LINE
  5
82F
330
6B
100
AcDbEntity
  8
0
 62
     2
100
AcDbLine
 10
2000.434296
 20
559.75765
 30
0.0
 11
2000.478702
 21
559.7140969999998
 31
0.0
  0
LINE
  5
830
330
6B
100
AcDbEntity
  8
0
 62
     2
100
AcDbLine
 10
2000.478702
 20
559.7140969999998
 30
0.0
 11
2000.524359
 21
559.681495
 31
0.0
  0
LINE
  5
831
330
6B
100
AcDbEntity
  8
0
 62
     2
100
AcDbLine
 10
2000.524359
 20
559.681495
 30
0.0
 11
2000.570914
 21
559.660098
 31
0.0
  0
LINE
  5
832
330
6B
100
AcDbEntity
  8
0
 62
     2
100
AcDbLine
 10
2000.570914
 20
559.660098
 30
0.0
 11
2000.618007
 21
559.650069
 31
0.0
  0
LINE
  5
833
330
6B
100
AcDbEntity
  8
0
 62
     2
100
AcDbLine
 10
2000.618007
 20
559.650069
 30
0.0
 11
2000.665275
 21
559.651487
 31
0.0
  0
LINE
  5
834
330
6B
100
AcDbEntity
  8
0
 62
     2
100
AcDbLine
 10
2000.665275
 20
559.651487
 30
0.0
 11
2000.712351
 21
559.664341
 31
0.0
  0
LINE
  5
835
330
6B
100
AcDbEntity
  8
0
 62
     2
100
AcDbLine
 10
2000.712351
 20
559.664341
 30
0.0
 11
2000.758872
 21
559.688531
 31
0.0
  0
LINE
  5
836
330
6B
100
AcDbEntity
  8
0
 62
     2
100
AcDbLine
 10
2000.758872
 20
559.688531
 30
0.0
 11
2000.804479
 21
559.723871
 31
0.0
  0
LINE
  5
837
330
6B
100
AcDbEntity
  8
0
 62
     2
100
AcDbLine
 10
2000.804479
 20
559.723871
 30
0.0
 11
2000.848819
 21
559.7700869999998
 31
0.0
  0
LINE
  5
838
330
6B
100
AcDbEntity
  8
0
 62
     2
100
AcDbLine
 10
2000.848819
 20
559.7700869999998
 30
0.0
 11
2000.891549
 21
559.8268209999998
 31
0.0
  0
LINE
  5
839
330
6B
100
AcDbEntity
  8
0
 62
     2
100
AcDbLine
 10
2000.891549
 20
559.8268209999998
 30
0.0
 11
2000.932339
 21
559.893637
 31
0.0
  0
LINE
  5
83A
330
6B
100
AcDbEntity
  8
0
 62
     2
100
AcDbLine
 10
2000.932339
 20
559.893637
 30
0.0
 11
2000.970873
 21
559.970016
 31
0.0
  0
LINE
  5
83B
330
6B
100
AcDbEntity
  8
0
 62
     2
100
AcDbLine
 10
2000.970873
 20
559.970016
 30
0.0
 11
2001.006854
 21
560.055369
 31
0.0
  0
LINE
  5
83C
330
6B
100
AcDbEntity
  8
0
 62
     2
100
AcDbLine
 10
2001.006854
 20
560.055369
 30
0.0
 11
2001.040004
 21
560.149036
 31
0.0
  0
LINE
  5
83D
330
6B
100
AcDbEntity
  8
0
 62
     2
100
AcDbLine
 10
2001.040004
 20
560.149036
 30
0.0
 11
2001.070066
 21
560.2502929999998
 31
0.0
  0
LINE
  5
83E
330
6B
100
AcDbEntity
  8
0
 62
     2
100
AcDbLine
 10
2001.070066
 20
560.2502929999998
 30
0.0
 11
2001.096809
 21
560.358357
 31
0.0
  0
LINE
  5
83F
330
6B
100
AcDbEntity
  8
0
 62
     2
100
AcDbLine
 10
2001.096809
 20
560.358357
 30
0.0
 11
2001.120024
 21
560.472393
 31
0.0
  0
LINE
  5
840
330
6B
100
AcDbEntity
  8
0
 62
     2
100
AcDbLine
 10
2001.120024
 20
560.472393
 30
0.0
 11
2001.139534
 21
560.59152
 31
0.0
  0
LINE
  5
843
330
6B
100
AcDbEntity
  8
0
100
AcDbLine
 10
1988.595503
 20
341.832211
 30
0.0
 11
1946.309031
 21
341.832211
 31
0.0
  0
LINE
  5
844
330
6B
100
AcDbEntity
  8
0
100
AcDbLine
 10
1988.595503
 20
475.832211
 30
0.0
 11
1946.309031
 21
475.832211
 31
0.0
  0
LINE
  5
845
330
6B
100
AcDbEntity
  8
0
100
AcDbLine
 10
1947.559031
 20
344.332211
 30
0.0
 11
1947.559031
 21
473.332211
 31
0.0
  0
LINE
  5
849
330
6B
100
AcDbEntity
  8
0
100
AcDbLine
 10
1961.345503
 20
428.96139
 30
0.0
 11
1961.345503
 21
494.927415
 31
0.0
  0
LINE
  5
84A
330
6B
100
AcDbEntity
  8
0
100
AcDbLine
 10
2016.345503
 20
428.96139
 30
0.0
 11
2016.345503
 21
494.927415
 31
0.0
  0
LINE
  5
84B
330
6B
100
AcDbEntity
  8
0
100
AcDbLine
 10
1963.845503
 20
493.677415
 30
0.0
 11
2013.845503
 21
493.677415
 31
0.0
  0
LINE
  5
84F
330
6B
100
AcDbEntity
  8
0
100
AcDbLine
 10
1975.851521
 20
348.462594
 30
0.0
 11
1975.851521
 21
329.266152
 31
0.0
  0
LINE
  5
850
330
6B
100
AcDbEntity
  8
0
100
AcDbLine
 10
2001.84389
 20
350.462594
 30
0.0
 11
2001.84389
 21
329.266152
 31
0.0
  0
LINE
  5
851
330
6B
100
AcDbEntity
  8
0
100
AcDbLine
 10
1978.351521
 20
330.516152
 30
0.0
 11
1999.34389
 21
330.516152
 31
0.0
  0
TEXT
  5
855
330
6B
100
AcDbEntity
  8
0
  6
Continuous
 62
     4
100
AcDbText
 10
1946.934031
 20
405.3322110000003
 30
0.0
 40
3.0
  1
134
 50
90.0
100
AcDbText
  0
LINE
  5
856
330
6B
100
AcDbEntity
  8
0
  6
ByBlock
 62
     0
370
    -2
100
AcDbLine
 10
1946.8891585
 20
473.332211
 30
0.0
 11
1947.559031
 21
475.832211
 31
0.0
  0
LINE
  5
857
330
6B
100
AcDbEntity
  8
0
  6
ByBlock
 62
     0
370
    -2
100
AcDbLine
 10
1947.559031
 20
475.832211
 30
0.0
 11
1948.2289035
 21
473.332211
 31
0.0
  0
LINE
  5
858
330
6B
100
AcDbEntity
  8
0
  6
ByBlock
 62
     0
370
    -2
100
AcDbLine
 10
1947.559031
 20
475.832211
 30
0.0
 11
1947.559031
 21
473.332211
 31
0.0
  0
LINE
  5
859
330
6B
100
AcDbEntity
  8
0
  6
ByBlock
 62
     0
370
    -2
100
AcDbLine
 10
1948.2289035
 20
344.332211
 30
0.0
 11
1947.559031
 21
341.832211
 31
0.0
  0
LINE
  5
85A
330
6B
100
AcDbEntity
  8
0
  6
ByBlock
 62
     0
370
    -2
100
AcDbLine
 10
1947.559031
 20
341.832211
 30
0.0
 11
1946.8891585
 21
344.332211
 31
0.0
  0
LINE
  5
85B
330
6B
100
AcDbEntity
  8
0
  6
ByBlock
 62
     0
370
    -2
100
AcDbLine
 10
1947.559031
 20
341.832211
 30
0.0
 11
1947.559031
 21
344.332211
 31
0.0
  0
TEXT
  5
85C
330
6B
100
AcDbEntity
  8
0
  6
Continuous
 62
     4
100
AcDbText
 10
1986.345503
 20
494.302415
 30
0.0
 40
3.0
  1
55
100
AcDbText
  0
LINE
  5
85D
330
6B
100
AcDbEntity
  8
0
  6
ByBlock
 62
     0
370
    -2
100
AcDbLine
 10
2013.845503
 20
494.3472875
 30
0.0
 11
2016.345503
 21
493.677415
 31
0.0
  0
LINE
  5
85E
330
6B
100
AcDbEntity
  8
0
  6
ByBlock
 62
     0
370
    -2
100
AcDbLine
 10
2016.345503
 20
493.677415
 30
0.0
 11
2013.845503
 21
493.0075425
 31
0.0
  0
LINE
  5
85F
330
6B
100
AcDbEntity
  8
0
  6
ByBlock
 62
     0
370
    -2
100
AcDbLine
 10
2016.345503
 20
493.677415
 30
0.0
 11
2013.845503
 21
493.677415
 31
0.0
  0
LINE
  5
860
330
6B
100
AcDbEntity
  8
0
  6
ByBlock
 62
     0
370
    -2
100
AcDbLine
 10
1963.845503
 20
493.0075425
 30
0.0
 11
1961.345503
 21
493.677415
 31
0.0
  0
LINE
  5
861
330
6B
100
AcDbEntity
  8
0
  6
ByBlock
 62
     0
370
    -2
100
AcDbLine
 10
1961.345503
 20
493.677415
 30
0.0
 11
1963.845503
 21
494.3472875
 31
0.0
  0
LINE
  5
862
330
6B
100
AcDbEntity
  8
0
  6
ByBlock
 62
     0
370
    -2
100
AcDbLine
 10
1961.345503
 20
493.677415
 30
0.0
 11
1963.845503
 21
493.677415
 31
0.0
  0
TEXT
  5
863
330
6B
100
AcDbEntity
  8
0
  6
Continuous
 62
     4
100
AcDbText
 10
1984.8477055
 20
331.141152
 30
0.0
 40
3.0
  1
E26
100
AcDbText
  0
LINE
  5
864
330
6B
100
AcDbEntity
  8
0
  6
ByBlock
 62
     0
370
    -2
100
AcDbLine
 10
1999.34389
 20
331.1860245
 30
0.0
 11
2001.84389
 21
330.516152
 31
0.0
  0
LINE
  5
865
330
6B
100
AcDbEntity
  8
0
  6
ByBlock
 62
     0
370
    -2
100
AcDbLine
 10
2001.84389
 20
330.516152
 30
0.0
 11
1999.34389
 21
329.8462795
 31
0.0
  0
LINE
  5
866
330
6B
100
AcDbEntity
  8
0
  6
ByBlock
 62
     0
370
    -2
100
AcDbLine
 10
2001.84389
 20
330.516152
 30
0.0
 11
1999.34389
 21
330.516152
 31
0.0
  0
LINE
  5
867
330
6B
100
AcDbEntity
  8
0
  6
ByBlock
 62
     0
370
    -2
100
AcDbLine
 10
1978.351521
 20
329.8462795
 30
0.0
 11
1975.851521
 21
330.516152
 31
0.0
  0
LINE
  5
868
330
6B
100
AcDbEntity
  8
0
  6
ByBlock
 62
     0
370
    -2
100
AcDbLine
 10
1975.851521
 20
330.516152
 30
0.0
 11
1978.351521
 21
331.1860245
 31
0.0
  0
LINE
  5
869
330
6B
100
AcDbEntity
  8
0
  6
ByBlock
 62
     0
370
    -2
100
AcDbLine
 10
1975.851521
 20
330.516152
 30
0.0
 11
1978.351521
 21
330.516152
 31
0.0
  0
ENDSEC
  0
SECTION
  2
OBJECTS
  0
DICTIONARY
  5
C
330
0
100
AcDbDictionary
281
     1
  3
ACAD_2007HEADERVARS_RT
350
86D
  3
ACAD_COLOR
350
62
  3
ACAD_GROUP
350
D
  3
ACAD_LAYOUT
350
61
  3
ACAD_MATERIAL
350
10
  3
ACAD_MLEADERSTYLE
350
65
  3
ACAD_MLINESTYLE
350
5E
  3
ACAD_PLOTSETTINGS
350
60
  3
ACAD_PLOTSTYLENAME
350
E
  3
ACAD_SCALELIST
350
42
  3
ACAD_TABLESTYLE
350
63
  3
ACAD_VISUALSTYLE
350
29
  3
ACDB_RECOMPOSE_DATA
350
86B
  3
AcDbVariableDictionary
350
50C
  3
DWGPROPS
350
86C
  0
DICTIONARY
  5
39D
330
2
100
AcDbDictionary
280
     1
281
     1
  3
ACAD_LAYERSTATES
360
39E
  0
DICTIONARY
  5
508
330
54
100
AcDbDictionary
280
     1
281
     1
  3
ADSK_XREC_LAYER_RECONCILED
360
509
  0
DICTIONARY
  5
841
330
6B
100
AcDbDictionary
280
     1
281
     1
  3
ACAD_SORTENTS
360
842
  0
DICTIONARY
  5
86D
102
{ACAD_REACTORS
330
C
102
}
330
C
100
AcDbDictionary
281
     1
  3
DIMARCSYM
350
86F
  3
DIMFXL
350
86E
  3
DIMJOGANG
350
870
  0
DICTIONARY
  5
62
102
{ACAD_REACTORS
330
C
102
}
330
C
100
AcDbDictionary
281
     1
  0
DICTIONARY
  5
D
102
{ACAD_REACTORS
330
C
102
}
330
C
100
AcDbDictionary
281
     1
  0
DICTIONARY
  5
61
102
{ACAD_REACTORS
330
C
102
}
330
C
100
AcDbDictionary
281
     1
  3
Model
350
6E
  3
レイアウト1
350
6A
  0
DICTIONARY
  5
10
102
{ACAD_REACTORS
330
C
102
}
330
C
100
AcDbDictionary
281
     1
  3
ByBlock
350
19
  3
ByLayer
350
11
  3
Global
350
21
  0
DICTIONARY
  5
65
102
{ACAD_REACTORS
330
C
102
}
330
C
100
AcDbDictionary
281
     1
  3
Standard
350
66
  0
DICTIONARY
  5
5E
102
{ACAD_REACTORS
330
C
102
}
330
C
100
AcDbDictionary
281
     1
  3
Standard
350
5F
  0
DICTIONARY
  5
60
102
{ACAD_REACTORS
330
C
102
}
330
C
100
AcDbDictionary
281
     1
  0
ACDBDICTIONARYWDFLT
  5
E
102
{ACAD_REACTORS
330
C
102
}
330
C
100
AcDbDictionary
281
     1
  3
Normal
350
F
100
AcDbDictionaryWithDefault
340
F
  0
DICTIONARY
  5
42
102
{ACAD_REACTORS
330
C
102
}
330
C
100
AcDbDictionary
281
     1
  3
A0
350
43
  3
A1
350
44
  3
A2
350
45
  3
A3
350
46
  3
A4
350
47
  3
A5
350
48
  3
A6
350
49
  3
A7
350
4A
  3
A8
350
4B
  3
A9
350
4C
  3
B0
350
4D
  3
B1
350
4E
  3
B2
350
4F
  3
B3
350
50
  3
B4
350
51
  3
B5
350
52
  3
B6
350
53
  0
DICTIONARY
  5
63
102
{ACAD_REACTORS
330
C
102
}
330
C
100
AcDbDictionary
281
     1
  3
Standard
350
64
  0
DICTIONARY
  5
29
102
{ACAD_REACTORS
330
C
102
}
330
C
100
AcDbDictionary
281
     1
  3
2dWireframe
350
2F
  3
3dWireframe
350
39C
  3
Basic
350
2E
  3
Brighten
350
35
  3
ColorChange
350
39
  3
Conceptual
350
32
  3
Dim
350
34
  3
EdgeColorOff
350
41
  3
Facepattern
350
38
  3
Flat
350
2A
  3
FlatWithEdges
350
2B
  3
Gouraud
350
2C
  3
GouraudWithEdges
350
2D
  3
Hidden
350
31
  3
JitterOff
350
3F
  3
Linepattern
350
37
  3
OverhangOff
350
40
  3
Realistic
350
33
  3
Shaded
350
3E
  3
Shaded with edges
350
3D
  3
Shades of Gray
350
3A
  3
Sketchy
350
3B
  3
Thicken
350
36
  3
Wireframe
350
30
  3
X-Ray
350
3C
  0
XRECORD
  5
86B
102
{ACAD_REACTORS
330
C
102
}
330
C
100
AcDbXrecord
280
     1
 90
        1
330
64
  0
DICTIONARY
  5
50C
102
{ACAD_REACTORS
330
C
102
}
330
C
100
AcDbDictionary
281
     1
  3
CANNOSCALE
350
50F
  3
CMLEADERSTYLE
350
50E
  3
CTABLESTYLE
350
50D
  3
DIMASSOC
350
512
  3
INDEXCTL
350
511
  3
SORTENTS
350
510
  3
XCLIPFRAME
350
7C3
  0
XRECORD
  5
86C
102
{ACAD_REACTORS
330
C
102
}
330
C
100
AcDbXrecord
280
     1
  1
DWGPROPS COOKIE
  2

  3

  4

  6

  7

  8
imamura
  9

300
=
301
=
302
=
303
=
304
=
305
=
306
=
307
=
308
=
309
=
 40
0.0112148032407408
 41
2456071.763533808
 42
2457357.552025532
  1

 90
        0
  0
DICTIONARY
  5
39E
102
{ACAD_REACTORS
330
39D
102
}
330
39D
100
AcDbDictionary
281
     1
  0
XRECORD
  5
509
102
{ACAD_REACTORS
330
508
102
}
330
508
100
AcDbXrecord
280
     1
290
     1
  0
SORTENTSTABLE
  5
842
102
{ACAD_REACTORS
330
841
102
}
330
841
100
AcDbSortentsTable
330
6B
331
1D3
  5
23B
331
1C2
  5
22E
331
1B1
  5
229
331
1A0
  5
21C
331
1E4
  5
24C
331
BC
  5
E5
331
805
  5
199
331
C5
  5
EE
331
1EE
  5
254
331
D6
  5
FD
331
1FF
  5
805
331
E7
  5
10E
331
210
  5
816
331
F8
  5
11F
331
811
  5
1A9
331
221
  5
827
331
109
  5
172
331
822
  5
1CA
331
232
  5
838
331
11A
  5
183
331
243
  5
84B
331
833
  5
1DB
331
254
  5
85C
331
844
  5
DB
331
17E
  5
1FE
331
855
  5
E3
331
867
  5
C1
331
1D4
  5
23C
331
1C3
  5
22F
331
868
  5
C2
331
806
  5
19A
331
C6
  5
EF
331
BD
  5
E6
331
1EF
  5
255
331
D7
  5
FE
331
200
  5
806
331
E8
  5
10F
331
211
  5
817
331
F9
  5
120
331
812
  5
1AA
331
222
  5
828
331
10A
  5
173
331
823
  5
1CB
331
233
  5
839
331
11B
  5
184
331
244
  5
84C
331
834
  5
1DC
331
255
  5
85D
331
845
  5
DC
331
17F
  5
1FF
331
856
  5
E0
331
260
  5
868
331
180
  5
200
331
1D5
  5
23D
331
1C4
  5
230
331
1B3
  5
22A
331
191
  5
20F
331
869
  5
C3
331
1E6
  5
24D
331
BE
  5
E7
331
807
  5
19B
331
C7
  5
F0
331
1F0
  5
256
331
D8
  5
FF
331
201
  5
807
331
E9
  5
110
331
212
  5
818
331
FA
  5
121
331
813
  5
1AB
331
223
  5
829
331
10B
  5
174
331
824
  5
1CC
331
234
  5
83A
331
11C
  5
185
331
256
  5
85E
331
245
  5
84D
331
835
  5
1DD
331
857
  5
E1
331
261
  5
869
331
181
  5
201
331
170
  5
1F0
331
858
  5
E2
331
1D6
  5
23E
331
1C5
  5
231
331
1E7
  5
24E
331
BF
  5
E8
331
1F1
  5
257
331
D9
  5
100
331
C8
  5
F1
331
202
  5
808
331
EA
  5
111
331
213
  5
819
331
FB
  5
122
331
814
  5
1AC
331
224
  5
82A
331
10C
  5
175
331
825
  5
1CD
331
235
  5
83B
331
11D
  5
186
331
257
  5
85F
331
246
  5
84E
331
836
  5
1DE
331
258
  5
860
331
1D7
  5
23F
331
1B5
  5
22B
331
193
  5
210
331
182
  5
202
331
171
  5
1F1
331
859
  5
DD
331
1F2
  5
258
331
DA
  5
101
331
C9
  5
F2
331
203
  5
809
331
EB
  5
112
331
214
  5
81A
331
FC
  5
123
331
815
  5
1AD
331
225
  5
82B
331
10D
  5
176
331
826
  5
1CE
331
236
  5
83C
331
11E
  5
187
331
247
  5
84F
331
837
  5
1DF
331
248
  5
850
331
838
  5
1E0
331
259
  5
861
331
849
  5
CE
331
1D8
  5
240
331
1A5
  5
21D
331
183
  5
203
331
172
  5
1F2
331
85A
  5
DE
331
1F3
  5
259
331
DB
  5
102
331
CA
  5
F3
331
204
  5
80A
331
215
  5
81B
331
FD
  5
124
331
816
  5
1AE
331
226
  5
82C
331
10E
  5
177
331
827
  5
1CF
331
237
  5
83D
331
11F
  5
188
331
EC
  5
113
331
828
  5
1D0
331
238
  5
83E
331
120
  5
189
331
249
  5
851
331
839
  5
1E1
331
25A
  5
862
331
84A
  5
D1
331
1D9
  5
241
331
1A6
  5
21E
331
195
  5
211
331
184
  5
204
331
173
  5
1F3
331
85B
  5
DF
331
1F4
  5
25A
331
DC
  5
103
331
CB
  5
F4
331
205
  5
80B
331
216
  5
81C
331
FE
  5
125
331
817
  5
1AF
331
227
  5
82D
331
10F
  5
178
331
ED
  5
114
331
818
  5
1B0
331
228
  5
82E
331
110
  5
179
331
829
  5
1D1
331
239
  5
83F
331
121
  5
18A
331
24A
  5
852
331
83A
  5
1E2
331
25B
  5
863
331
84B
  5
D2
331
1DA
  5
242
331
1A7
  5
21F
331
196
  5
212
331
185
  5
205
331
174
  5
1F4
331
85C
  5
D9
331
1F5
  5
25B
331
DD
  5
104
331
CC
  5
F5
331
206
  5
80C
331
217
  5
81D
331
FF
  5
126
331
EE
  5
115
331
808
  5
19C
331
218
  5
81E
331
100
  5
127
331
819
  5
1B1
331
229
  5
82F
331
111
  5
17A
331
82A
  5
1D2
331
23A
  5
840
331
122
  5
18B
331
25C
  5
864
331
24B
  5
853
331
16B
  5
1EB
331
83B
  5
1E3
331
1DB
  5
243
331
1CA
  5
232
331
1A8
  5
220
331
197
  5
213
331
186
  5
206
331
175
  5
1F5
331
85D
  5
D6
331
1F6
  5
25C
331
DE
  5
105
331
CD
  5
F6
331
207
  5
80D
331
EF
  5
116
331
208
  5
80E
331
F0
  5
117
331
809
  5
19D
331
219
  5
81F
331
101
  5
128
331
81A
  5
1B3
331
22A
  5
830
331
112
  5
17B
331
82B
  5
1D3
331
23B
  5
843
331
123
  5
18C
331
25D
  5
865
331
24C
  5
854
331
16C
  5
1EC
331
83C
  5
1E4
331
1DC
  5
244
331
1CB
  5
233
331
1A9
  5
221
331
198
  5
214
331
187
  5
207
331
176
  5
1F6
331
85E
  5
D7
331
1F7
  5
25D
331
DF
  5
106
331
CE
  5
F7
331
1F8
  5
25E
331
E0
  5
107
331
209
  5
80F
331
F1
  5
118
331
80A
  5
19E
331
21A
  5
820
331
102
  5
16B
331
81B
  5
1B5
331
22B
  5
831
331
113
  5
17C
331
82C
  5
1D4
331
23C
  5
844
331
124
  5
18D
331
25E
  5
866
331
24D
  5
855
331
16D
  5
1ED
331
83D
  5
1E6
331
177
  5
1F7
331
85F
  5
D8
331
1DD
  5
245
331
1CC
  5
234
331
1BB
  5
22C
331
1AA
  5
222
331
199
  5
215
331
188
  5
208
331
860
  5
D3
331
1E8
  5
24F
331
1F9
  5
25F
331
E1
  5
108
331
20A
  5
810
331
F2
  5
119
331
80B
  5
19F
331
21B
  5
821
331
103
  5
16C
331
81C
  5
1BB
331
22C
  5
832
331
114
  5
17D
331
82D
  5
1D5
331
23D
  5
845
331
125
  5
18E
331
24E
  5
856
331
16E
  5
1EE
331
83E
  5
1E7
331
25F
  5
867
331
178
  5
1F8
331
1DE
  5
246
331
1CD
  5
235
331
1AB
  5
223
331
19A
  5
216
331
189
  5
209
331
861
  5
D4
331
84F
  5
BB
331
1E9
  5
250
331
D1
  5
F8
331
C0
  5
E9
331
1FA
  5
260
331
E2
  5
109
331
20B
  5
811
331
F3
  5
11A
331
80C
  5
1A0
331
21C
  5
822
331
104
  5
16D
331
81D
  5
1C1
331
22D
  5
833
331
115
  5
17E
331
82E
  5
1D6
331
23E
  5
846
331
126
  5
191
331
24F
  5
857
331
16F
  5
1EF
331
83F
  5
1E8
331
179
  5
1F9
331
1DF
  5
247
331
1CE
  5
236
331
1AC
  5
224
331
19B
  5
217
331
18A
  5
20A
331
862
  5
D5
331
850
  5
BC
331
1E0
  5
248
331
1FB
  5
261
331
E3
  5
10A
331
D2
  5
F9
331
C1
  5
EA
331
20C
  5
812
331
F4
  5
11B
331
80D
  5
1A5
331
21D
  5
823
331
105
  5
16E
331
81E
  5
1C2
331
22E
  5
834
331
116
  5
17F
331
82F
  5
1D7
331
23F
  5
847
331
127
  5
193
331
250
  5
858
331
840
  5
1E9
331
17A
  5
1FA
331
1CF
  5
237
331
1AD
  5
225
331
19C
  5
218
331
18B
  5
20B
331
863
  5
CD
331
851
  5
BD
331
1E1
  5
249
331
1D0
  5
238
331
802
  5
196
331
C2
  5
EB
331
1EB
  5
251
331
D3
  5
FA
331
1FC
  5
802
331
E4
  5
10B
331
20D
  5
813
331
F5
  5
11C
331
80E
  5
1A6
331
21E
  5
824
331
106
  5
16F
331
81F
  5
1C3
331
22F
  5
835
331
117
  5
180
331
830
  5
1D8
331
251
  5
859
331
240
  5
848
331
17B
  5
1FB
331
1AE
  5
226
331
19D
  5
219
331
18C
  5
20C
331
864
  5
C7
331
128
  5
195
331
1E2
  5
24A
331
1D1
  5
239
331
803
  5
197
331
C3
  5
EC
331
1EC
  5
252
331
D4
  5
FB
331
1FD
  5
803
331
E5
  5
10C
331
20E
  5
814
331
F6
  5
11D
331
80F
  5
1A7
331
21F
  5
825
331
107
  5
170
331
820
  5
1C4
331
230
  5
836
331
118
  5
181
331
252
  5
85A
331
241
  5
849
331
831
  5
1D9
331
17C
  5
1FC
331
1AF
  5
227
331
19E
  5
21A
331
18D
  5
20D
331
865
  5
C8
331
1D2
  5
23A
331
1C1
  5
22D
331
1B0
  5
228
331
1E3
  5
24B
331
BB
  5
E4
331
804
  5
198
331
C4
  5
ED
331
1ED
  5
253
331
D5
  5
FC
331
1FE
  5
804
331
E6
  5
10D
331
20F
  5
815
331
F7
  5
11E
331
810
  5
1A8
331
220
  5
826
331
108
  5
171
331
821
  5
1C5
331
231
  5
837
331
119
  5
182
331
242
  5
84A
331
832
  5
1DA
331
253
  5
85B
331
843
  5
DA
331
17D
  5
1FD
331
19F
  5
21B
331
18E
  5
20E
331
866
  5
C9
  0
XRECORD
  5
86F
102
{ACAD_REACTORS
330
86D
102
}
330
86D
100
AcDbXrecord
280
     1
 70
     2
  0
XRECORD
  5
86E
102
{ACAD_REACTORS
330
86D
102
}
330
86D
100
AcDbXrecord
280
     1
 40
1.25
  0
XRECORD
  5
870
102
{ACAD_REACTORS
330
86D
102
}
330
86D
100
AcDbXrecord
280
     1
 40
1.570796326794896
  0
LAYOUT
  5
6E
102
{ACAD_XDICTIONARY
360
8A4
102
}
102
{ACAD_REACTORS
330
61
102
}
330
61
100
AcDbPlotSettings
  1

  2
FX DP 205
  4

  6

 40
0.0
 41
0.0
 42
0.0
 43
0.0
 44
0.0
 45
0.0
 46
0.0
 47
0.0
 48
0.0
 49
0.0
140
0.0
141
0.0
142
1.0
143
1.0
 70
  1712
 72
     0
 73
     0
 74
     0
  7

 75
     0
147
1.0
148
0.0
149
0.0
100
AcDbLayout
  1
Model
 70
     1
 71
     0
 10
0.0
 20
0.0
 11
12.0
 21
9.0
 12
0.0
 22
0.0
 32
0.0
 14
0.0
 24
0.0
 34
0.0
 15
0.0
 25
0.0
 35
0.0
146
0.0
 13
0.0
 23
0.0
 33
0.0
 16
1.0
 26
0.0
 36
0.0
 17
0.0
 27
1.0
 37
0.0
 76
     0
330
6B
331
8B
  0
LAYOUT
  5
6A
102
{ACAD_XDICTIONARY
360
8A2
102
}
102
{ACAD_REACTORS
330
61
102
}
330
61
100
AcDbPlotSettings
  1

  2
FX DP 205
  4

  6

 40
0.0
 41
0.0
 42
0.0
 43
0.0
 44
0.0
 45
0.0
 46
0.0
 47
0.0
 48
0.0
 49
0.0
140
0.0
141
0.0
142
1.0
143
1.0
 70
   688
 72
     0
 73
     0
 74
     5
  7

 75
    16
147
1.0
148
0.0
149
0.0
100
AcDbLayout
  1
レイアウト1
 70
     1
 71
     1
 10
0.0
 20
0.0
 11
12.0
 21
9.0
 12
0.0
 22
0.0
 32
0.0
 14
1.000000000000000E+20
 24
1.000000000000000E+20
 34
1.000000000000000E+20
 15
-1.000000000000000E+20
 25
-1.000000000000000E+20
 35
-1.000000000000000E+20
146
0.0
 13
0.0
 23
0.0
 33
0.0
 16
1.0
 26
0.0
 36
0.0
 17
0.0
 27
1.0
 37
0.0
 76
     0
330
67
  0
MATERIAL
  5
19
102
{ACAD_XDICTIONARY
360
1A
102
}
102
{ACAD_REACTORS
330
10
102
}
330
10
100
AcDbMaterial
  1
ByBlock
 72
     0
 43
0.0208333333333333
 43
0.0
 43
0.0
 43
0.0
 43
0.0
 43
0.0208333333333333
 43
0.0
 43
0.0
 43
0.0
 43
0.0
 43
1.0
 43
0.0
 43
0.0
 43
0.0
 43
0.0
 43
1.0
 77
     0
 47
0.0208333333333333
 47
0.0
 47
0.0
 47
0.0
 47
0.0
 47
0.0208333333333333
 47
0.0
 47
0.0
 47
0.0
 47
0.0
 47
1.0
 47
0.0
 47
0.0
 47
0.0
 47
0.0
 47
1.0
171
     0
 49
0.0208333333333333
 49
0.0
 49
0.0
 49
0.0
 49
0.0
 49
0.0208333333333333
 49
0.0
 49
0.0
 49
0.0
 49
0.0
 49
1.0
 49
0.0
 49
0.0
 49
0.0
 49
0.0
 49
1.0
175
     0
142
0.0208333333333333
142
0.0
142
0.0
142
0.0
142
0.0
142
0.0208333333333333
142
0.0
142
0.0
142
0.0
142
0.0
142
1.0
142
0.0
142
0.0
142
0.0
142
0.0
142
1.0
179
     0
144
0.0208333333333333
144
0.0
144
0.0
144
0.0
144
0.0
144
0.0208333333333333
144
0.0
144
0.0
144
0.0
144
0.0
144
1.0
144
0.0
144
0.0
144
0.0
144
0.0
144
1.0
147
0.0208333333333333
147
0.0
147
0.0
147
0.0
147
0.0
147
0.0208333333333333
147
0.0
147
0.0
147
0.0
147
0.0
147
1.0
147
0.0
147
0.0
147
0.0
147
0.0
147
1.0
  0
MATERIAL
  5
11
102
{ACAD_XDICTIONARY
360
12
102
}
102
{ACAD_REACTORS
330
10
102
}
330
10
100
AcDbMaterial
  1
ByLayer
 72
     0
 43
0.0208333333333333
 43
0.0
 43
0.0
 43
0.0
 43
0.0
 43
0.0208333333333333
 43
0.0
 43
0.0
 43
0.0
 43
0.0
 43
1.0
 43
0.0
 43
0.0
 43
0.0
 43
0.0
 43
1.0
 77
     0
 47
0.0208333333333333
 47
0.0
 47
0.0
 47
0.0
 47
0.0
 47
0.0208333333333333
 47
0.0
 47
0.0
 47
0.0
 47
0.0
 47
1.0
 47
0.0
 47
0.0
 47
0.0
 47
0.0
 47
1.0
171
     0
 49
0.0208333333333333
 49
0.0
 49
0.0
 49
0.0
 49
0.0
 49
0.0208333333333333
 49
0.0
 49
0.0
 49
0.0
 49
0.0
 49
1.0
 49
0.0
 49
0.0
 49
0.0
 49
0.0
 49
1.0
175
     0
142
0.0208333333333333
142
0.0
142
0.0
142
0.0
142
0.0
142
0.0208333333333333
142
0.0
142
0.0
142
0.0
142
0.0
142
1.0
142
0.0
142
0.0
142
0.0
142
0.0
142
1.0
179
     0
144
0.0208333333333333
144
0.0
144
0.0
144
0.0
144
0.0
144
0.0208333333333333
144
0.0
144
0.0
144
0.0
144
0.0
144
1.0
144
0.0
144
0.0
144
0.0
144
0.0
144
1.0
147
0.0208333333333333
147
0.0
147
0.0
147
0.0
147
0.0
147
0.0208333333333333
147
0.0
147
0.0
147
0.0
147
0.0
147
1.0
147
0.0
147
0.0
147
0.0
147
0.0
147
1.0
  0
MATERIAL
  5
21
102
{ACAD_XDICTIONARY
360
22
102
}
102
{ACAD_REACTORS
330
10
102
}
330
10
100
AcDbMaterial
  1
Global
 72
     0
 43
0.0208333333333333
 43
0.0
 43
0.0
 43
0.0
 43
0.0
 43
0.0208333333333333
 43
0.0
 43
0.0
 43
0.0
 43
0.0
 43
1.0
 43
0.0
 43
0.0
 43
0.0
 43
0.0
 43
1.0
 77
     0
 47
0.0208333333333333
 47
0.0
 47
0.0
 47
0.0
 47
0.0
 47
0.0208333333333333
 47
0.0
 47
0.0
 47
0.0
 47
0.0
 47
1.0
 47
0.0
 47
0.0
 47
0.0
 47
0.0
 47
1.0
171
     0
 49
0.0208333333333333
 49
0.0
 49
0.0
 49
0.0
 49
0.0
 49
0.0208333333333333
 49
0.0
 49
0.0
 49
0.0
 49
0.0
 49
1.0
 49
0.0
 49
0.0
 49
0.0
 49
0.0
 49
1.0
175
     0
142
0.0208333333333333
142
0.0
142
0.0
142
0.0
142
0.0
142
0.0208333333333333
142
0.0
142
0.0
142
0.0
142
0.0
142
1.0
142
0.0
142
0.0
142
0.0
142
0.0
142
1.0
179
     0
144
0.0208333333333333
144
0.0
144
0.0
144
0.0
144
0.0
144
0.0208333333333333
144
0.0
144
0.0
144
0.0
144
0.0
144
1.0
144
0.0
144
0.0
144
0.0
144
0.0
144
1.0
147
0.0208333333333333
147
0.0
147
0.0
147
0.0
147
0.0
147
0.0208333333333333
147
0.0
147
0.0
147
0.0
147
0.0
147
1.0
147
0.0
147
0.0
147
0.0
147
0.0
147
1.0
  0
MLEADERSTYLE
  5
66
102
{ACAD_REACTORS
330
65
102
}
330
65
100
AcDbMLeaderStyle
170
     2
171
     1
172
     0
 90
        2
 40
0.0
 41
0.0
173
     1
 91
-1056964608
340
5A
 92
       -2
290
     1
 42
0.09
291
     1
 43
0.36
  3
Standard
 44
0.18
300

342
55
174
     1
178
     6
175
     1
176
     0
 93
-1056964608
 45
0.18
292
     0
297
     0
 46
0.18
 94
-1056964608
 47
1.0
 49
1.0
140
1.0
293
     1
141
0.0
294
     1
177
     0
142
1.0
295
     0
296
     0
143
0.125
1001
ACAD_MLEADERVER
1070
     2
  0
MLINESTYLE
  5
5F
102
{ACAD_REACTORS
330
5E
102
}
330
5E
100
AcDbMlineStyle
  2
STANDARD
 70
     0
  3

 62
   256
 51
90.0
 52
90.0
 71
     2
 49
0.5
 62
   256
  6
BYLAYER
 49
-0.5
 62
   256
  6
BYLAYER
  0
ACDBPLACEHOLDER
  5
F
102
{ACAD_REACTORS
330
E
102
}
330
E
  0
SCALE
  5
43
102
{ACAD_REACTORS
330
42
102
}
330
42
100
AcDbScale
 70
     0
300
1:1
140
1.0
141
1.0
290
     1
  0
SCALE
  5
44
102
{ACAD_REACTORS
330
42
102
}
330
42
100
AcDbScale
 70
     0
300
1/128" = 1'-0"
140
0.0078125
141
12.0
290
     0
  0
SCALE
  5
45
102
{ACAD_REACTORS
330
42
102
}
330
42
100
AcDbScale
 70
     0
300
1/64" = 1'-0"
140
0.015625
141
12.0
290
     0
  0
SCALE
  5
46
102
{ACAD_REACTORS
330
42
102
}
330
42
100
AcDbScale
 70
     0
300
1/32" = 1'-0"
140
0.03125
141
12.0
290
     0
  0
SCALE
  5
47
102
{ACAD_REACTORS
330
42
102
}
330
42
100
AcDbScale
 70
     0
300
1/16" = 1'-0"
140
0.0625
141
12.0
290
     0
  0
SCALE
  5
48
102
{ACAD_REACTORS
330
42
102
}
330
42
100
AcDbScale
 70
     0
300
3/32" = 1'-0"
140
0.09375
141
12.0
290
     0
  0
SCALE
  5
49
102
{ACAD_REACTORS
330
42
102
}
330
42
100
AcDbScale
 70
     0
300
1/8" = 1'-0"
140
0.125
141
12.0
290
     0
  0
SCALE
  5
4A
102
{ACAD_REACTORS
330
42
102
}
330
42
100
AcDbScale
 70
     0
300
3/16" = 1'-0"
140
0.1875
141
12.0
290
     0
  0
SCALE
  5
4B
102
{ACAD_REACTORS
330
42
102
}
330
42
100
AcDbScale
 70
     0
300
1/4" = 1'-0"
140
0.25
141
12.0
290
     0
  0
SCALE
  5
4C
102
{ACAD_REACTORS
330
42
102
}
330
42
100
AcDbScale
 70
     0
300
3/8" = 1'-0"
140
0.375
141
12.0
290
     0
  0
SCALE
  5
4D
102
{ACAD_REACTORS
330
42
102
}
330
42
100
AcDbScale
 70
     0
300
1/2" = 1'-0"
140
0.5
141
12.0
290
     0
  0
SCALE
  5
4E
102
{ACAD_REACTORS
330
42
102
}
330
42
100
AcDbScale
 70
     0
300
3/4" = 1'-0"
140
0.75
141
12.0
290
     0
  0
SCALE
  5
4F
102
{ACAD_REACTORS
330
42
102
}
330
42
100
AcDbScale
 70
     0
300
1" = 1'-0"
140
1.0
141
12.0
290
     0
  0
SCALE
  5
50
102
{ACAD_REACTORS
330
42
102
}
330
42
100
AcDbScale
 70
     0
300
1-1/2" = 1'-0"
140
1.5
141
12.0
290
     0
  0
SCALE
  5
51
102
{ACAD_REACTORS
330
42
102
}
330
42
100
AcDbScale
 70
     0
300
3" = 1'-0"
140
3.0
141
12.0
290
     0
  0
SCALE
  5
52
102
{ACAD_REACTORS
330
42
102
}
330
42
100
AcDbScale
 70
     0
300
6" = 1'-0"
140
6.0
141
12.0
290
     0
  0
SCALE
  5
53
102
{ACAD_REACTORS
330
42
102
}
330
42
100
AcDbScale
 70
     0
300
1'-0" = 1'-0"
140
12.0
141
12.0
290
     0
  0
TABLESTYLE
  5
64
102
{ACAD_XDICTIONARY
360
514
102
}
102
{ACAD_REACTORS
330
63
102
}
330
63
100
AcDbTableStyle
  3
Standard
 70
     0
 71
     0
 40
0.06
 41
0.06
280
     0
281
     0
  7
STANDARD
140
0.18
170
     2
 62
     0
 63
     7
283
     0
274
    -2
284
     1
 64
     0
275
    -2
285
     1
 65
     0
276
    -2
286
     1
 66
     0
277
    -2
287
     1
 67
     0
278
    -2
288
     1
 68
     0
279
    -2
289
     1
 69
     0
  7
STANDARD
140
0.25
170
     5
 62
     0
 63
     7
283
     0
274
    -2
284
     1
 64
     0
275
    -2
285
     1
 65
     0
276
    -2
286
     1
 66
     0
277
    -2
287
     1
 67
     0
278
    -2
288
     1
 68
     0
279
    -2
289
     1
 69
     0
  7
STANDARD
140
0.18
170
     5
 62
     0
 63
     7
283
     0
274
    -2
284
     1
 64
     0
275
    -2
285
     1
 65
     0
276
    -2
286
     1
 66
     0
277
    -2
287
     1
 67
     0
278
    -2
288
     1
 68
     0
279
    -2
289
     1
 69
     0
  0
VISUALSTYLE
  5
2F
102
{ACAD_XDICTIONARY
360
87B
102
}
102
{ACAD_REACTORS
330
29
102
}
330
29
100
AcDbVisualStyle
  2

 70
     4
 71
     0
 72
     2
 73
     0
 90
        0
 40
-0.6
 41
-30.0
 62
     5
 63
     7
 74
     1
 91
        4
 64
     7
 65
   257
 75
     1
175
     1
 42
1.0
 92
        0
 66
   257
 43
1.0
 76
     1
 77
     6
 78
     2
 67
     7
 79
     5
170
     0
171
     0
290
     0
174
     0
 93
        1
 44
0.0
173
     0
291
     0
 45
0.0
1001
ACAD
1000
AcDbSavedByObjectVersion
1070
     0
  0
VISUALSTYLE
  5
39C
102
{ACAD_XDICTIONARY
360
8A6
102
}
102
{ACAD_REACTORS
330
29
102
}
330
29
100
AcDbVisualStyle
  2

 70
     5
 71
     0
 72
     2
 73
     1
 90
        0
 40
-0.6
 41
-30.0
 62
     5
 63
     7
 74
     1
 91
        4
 64
     7
 65
   257
 75
     1
175
     1
 42
1.0
 92
        0
 66
   257
 43
1.0
 76
     1
 77
     6
 78
     2
 67
     7
 79
     5
170
     0
171
     0
290
     0
174
     0
 93
        1
 44
0.0
173
     0
291
     0
 45
0.0
1001
ACAD
1000
AcDbSavedByObjectVersion
1070
     0
  0
VISUALSTYLE
  5
2E
102
{ACAD_XDICTIONARY
360
879
102
}
102
{ACAD_REACTORS
330
29
102
}
330
29
100
AcDbVisualStyle
  2

 70
     7
 71
     1
 72
     0
 73
     1
 90
        0
 40
-0.6
 41
-30.0
 62
     5
 63
     7
 74
     0
 91
        4
 64
     7
 65
   257
 75
     1
175
     1
 42
1.0
 92
        8
 66
     7
 43
1.0
 76
     1
 77
     6
 78
     2
 67
     7
 79
     5
170
     0
171
     0
290
     0
174
     0
 93
        1
 44
0.0
173
     0
291
     1
 45
0.0
1001
ACAD
1000
AcDbSavedByObjectVersion
1070
     0
  0
VISUALSTYLE
  5
35
102
{ACAD_XDICTIONARY
360
887
102
}
102
{ACAD_REACTORS
330
29
102
}
330
29
100
AcDbVisualStyle
  2

 70
    12
 71
     2
 72
     2
 73
     0
 90
        0
 40
-0.6
 41
-30.0
 62
     5
 63
     7
 74
     1
 91
        4
 64
     7
 65
   257
 75
     1
175
     1
 42
1.0
 92
        8
 66
     7
 43
1.0
 76
     1
 77
     6
 78
     2
 67
     7
 79
     5
170
     0
171
     0
290
     0
174
     0
 93
        1
 44
50.0
173
     0
291
     1
 45
0.0
1001
ACAD
1000
AcDbSavedByObjectVersion
1070
     0
  0
VISUALSTYLE
  5
39
102
{ACAD_XDICTIONARY
360
88F
102
}
102
{ACAD_REACTORS
330
29
102
}
330
29
100
AcDbVisualStyle
  2

 70
    16
 71
     2
 72
     2
 73
     3
 90
        0
 40
-0.6
 41
-30.0
 62
     5
 63
     8
 74
     1
 91
        4
 64
     7
 65
   257
 75
     1
175
     1
 42
1.0
 92
        8
 66
     8
 43
1.0
 76
     1
 77
     6
 78
     2
 67
     7
 79
     5
170
     0
171
     0
290
     0
174
     0
 93
        1
 44
0.0
173
     0
291
     1
 45
0.0
1001
ACAD
1000
AcDbSavedByObjectVersion
1070
     0
  0
VISUALSTYLE
  5
32
102
{ACAD_XDICTIONARY
360
881
102
}
102
{ACAD_REACTORS
330
29
102
}
330
29
100
AcDbVisualStyle
  2

 70
     9
 71
     3
 72
     2
 73
     0
 90
        0
 40
-0.6
 41
-30.0
 62
     5
 63
     7
 74
     2
 91
        2
 64
     7
 65
   257
 75
     1
175
     1
 42
179.0
 92
        8
 66
     7
 43
1.0
 76
     1
 77
     6
 78
     2
 67
     7
 79
     3
170
     0
171
     0
290
     0
174
     0
 93
        1
 44
0.0
173
     0
291
     0
 45
0.0
1001
ACAD
1000
AcDbSavedByObjectVersion
1070
     0
  0
VISUALSTYLE
  5
34
102
{ACAD_XDICTIONARY
360
885
102
}
102
{ACAD_REACTORS
330
29
102
}
330
29
100
AcDbVisualStyle
  2

 70
    11
 71
     2
 72
     2
 73
     0
 90
        0
 40
-0.6
 41
-30.0
 62
     5
 63
     7
 74
     1
 91
        4
 64
     7
 65
   257
 75
     1
175
     1
 42
1.0
 92
        8
 66
     7
 43
1.0
 76
     1
 77
     6
 78
     2
 67
     7
 79
     5
170
     0
171
     0
290
     0
174
     0
 93
        1
 44
-50.0
173
     0
291
     1
 45
0.0
1001
ACAD
1000
AcDbSavedByObjectVersion
1070
     0
  0
VISUALSTYLE
  5
41
102
{ACAD_XDICTIONARY
360
89F
102
}
102
{ACAD_REACTORS
330
29
102
}
330
29
100
AcDbVisualStyle
  2

 70
    22
 71
     2
 72
     2
 73
     0
 90
        0
 40
-0.6
 41
-30.0
 62
     5
 63
     7
 74
     1
 91
        4
 64
     7
 65
   257
 75
     1
175
     1
 42
1.0
 92
        8
 66
     7
 43
1.0
 76
     1
 77
     6
 78
     2
 67
     7
 79
     5
170
     0
171
     0
290
     0
174
     0
 93
        1
 44
0.0
173
     0
291
     1
 45
0.0
1001
ACAD
1000
AcDbSavedByObjectVersion
1070
     0
  0
VISUALSTYLE
  5
38
102
{ACAD_XDICTIONARY
360
88D
102
}
102
{ACAD_REACTORS
330
29
102
}
330
29
100
AcDbVisualStyle
  2

 70
    15
 71
     2
 72
     2
 73
     0
 90
        0
 40
-0.6
 41
-30.0
 62
     5
 63
     7
 74
     1
 91
        4
 64
     7
 65
   257
 75
     1
175
     1
 42
1.0
 92
        8
 66
     7
 43
1.0
 76
     1
 77
     6
 78
     2
 67
     7
 79
     5
170
     0
171
     0
290
     0
174
     0
 93
        1
 44
0.0
173
     0
291
     1
 45
0.0
1001
ACAD
1000
AcDbSavedByObjectVersion
1070
     0
  0
VISUALSTYLE
  5
2A
102
{ACAD_XDICTIONARY
360
871
102
}
102
{ACAD_REACTORS
330
29
102
}
330
29
100
AcDbVisualStyle
  2

 70
     0
 71
     2
 72
     1
 73
     1
 90
        2
 40
-0.6
 41
30.0
 62
     5
 63
     7
 74
     0
 91
        0
 64
     7
 65
   257
 75
     1
175
     1
 42
1.0
 92
        8
 66
     7
 43
1.0
 76
     1
 77
     6
 78
     2
 67
     7
 79
     5
170
     0
171
     0
290
     0
174
     0
 93
       13
 44
0.0
173
     0
291
     1
 45
0.0
1001
ACAD
1000
AcDbSavedByObjectVersion
1070
     0
  0
VISUALSTYLE
  5
2B
102
{ACAD_XDICTIONARY
360
873
102
}
102
{ACAD_REACTORS
330
29
102
}
330
29
100
AcDbVisualStyle
  2

 70
     1
 71
     2
 72
     1
 73
     1
 90
        2
 40
-0.6
 41
30.0
 62
     5
 63
     7
 74
     1
 91
        0
 64
     7
 65
   257
 75
     1
175
     1
 42
1.0
 92
        0
 66
   257
 43
1.0
 76
     1
 77
     6
 78
     2
 67
     7
 79
     5
170
     0
171
     0
290
     0
174
     0
 93
       13
 44
0.0
173
     0
291
     1
 45
0.0
1001
ACAD
1000
AcDbSavedByObjectVersion
1070
     0
  0
VISUALSTYLE
  5
2C
102
{ACAD_XDICTIONARY
360
875
102
}
102
{ACAD_REACTORS
330
29
102
}
330
29
100
AcDbVisualStyle
  2

 70
     2
 71
     2
 72
     2
 73
     1
 90
        2
 40
-0.6
 41
30.0
 62
     5
 63
     7
 74
     0
 91
        0
 64
     7
 65
   257
 75
     1
175
     1
 42
1.0
 92
        0
 66
     7
 43
1.0
 76
     1
 77
     6
 78
     2
 67
     7
 79
     5
170
     0
171
     0
290
     0
174
     0
 93
       13
 44
0.0
173
     0
291
     1
 45
0.0
1001
ACAD
1000
AcDbSavedByObjectVersion
1070
     0
  0
VISUALSTYLE
  5
2D
102
{ACAD_XDICTIONARY
360
877
102
}
102
{ACAD_REACTORS
330
29
102
}
330
29
100
AcDbVisualStyle
  2

 70
     3
 71
     2
 72
     2
 73
     1
 90
        2
 40
-0.6
 41
30.0
 62
     5
 63
     7
 74
     1
 91
        0
 64
     7
 65
   257
 75
     1
175
     1
 42
1.0
 92
        0
 66
   257
 43
1.0
 76
     1
 77
     6
 78
     2
 67
     7
 79
     5
170
     0
171
     0
290
     0
174
     0
 93
       13
 44
0.0
173
     0
291
     1
 45
0.0
1001
ACAD
1000
AcDbSavedByObjectVersion
1070
     0
  0
VISUALSTYLE
  5
31
102
{ACAD_XDICTIONARY
360
87F
102
}
102
{ACAD_REACTORS
330
29
102
}
330
29
100
AcDbVisualStyle
  2

 70
     6
 71
     1
 72
     2
 73
     2
 90
        0
 40
-0.6
 41
-30.0
 62
     5
 63
     7
 74
     2
 91
        2
 64
     7
 65
   257
 75
     2
175
     1
 42
40.0
 92
        0
 66
   257
 43
1.0
 76
     1
 77
     6
 78
     2
 67
     7
 79
     3
170
     0
171
     0
290
     0
174
     0
 93
        1
 44
0.0
173
     0
291
     0
 45
0.0
1001
ACAD
1000
AcDbSavedByObjectVersion
1070
     0
  0
VISUALSTYLE
  5
3F
102
{ACAD_XDICTIONARY
360
89B
102
}
102
{ACAD_REACTORS
330
29
102
}
330
29
100
AcDbVisualStyle
  2

 70
    20
 71
     2
 72
     2
 73
     0
 90
        0
 40
-0.6
 41
-30.0
 62
     5
 63
     7
 74
     1
 91
        4
 64
     7
 65
   257
 75
     1
175
     1
 42
1.0
 92
       10
 66
     7
 43
1.0
 76
     1
 77
     6
 78
     2
 67
     7
 79
     5
170
     0
171
     0
290
     0
174
     0
 93
        1
 44
0.0
173
     0
291
     1
 45
0.0
1001
ACAD
1000
AcDbSavedByObjectVersion
1070
     0
  0
VISUALSTYLE
  5
37
102
{ACAD_XDICTIONARY
360
88B
102
}
102
{ACAD_REACTORS
330
29
102
}
330
29
100
AcDbVisualStyle
  2

 70
    14
 71
     2
 72
     2
 73
     0
 90
        0
 40
-0.6
 41
-30.0
 62
     5
 63
     7
 74
     1
 91
        4
 64
     7
 65
   257
 75
     7
175
     7
 42
1.0
 92
        8
 66
     7
 43
1.0
 76
     1
 77
     6
 78
     2
 67
     7
 79
     5
170
     0
171
     0
290
     0
174
     0
 93
        1
 44
0.0
173
     0
291
     1
 45
0.0
1001
ACAD
1000
AcDbSavedByObjectVersion
1070
     0
  0
VISUALSTYLE
  5
40
102
{ACAD_XDICTIONARY
360
89D
102
}
102
{ACAD_REACTORS
330
29
102
}
330
29
100
AcDbVisualStyle
  2

 70
    21
 71
     2
 72
     2
 73
     0
 90
        0
 40
-0.6
 41
-30.0
 62
     5
 63
     7
 74
     1
 91
        4
 64
     7
 65
   257
 75
     1
175
     1
 42
1.0
 92
        9
 66
     7
 43
1.0
 76
     1
 77
     6
 78
     2
 67
     7
 79
     5
170
     0
171
     0
290
     0
174
     0
 93
        1
 44
0.0
173
     0
291
     1
 45
0.0
1001
ACAD
1000
AcDbSavedByObjectVersion
1070
     0
  0
VISUALSTYLE
  5
33
102
{ACAD_XDICTIONARY
360
883
102
}
102
{ACAD_REACTORS
330
29
102
}
330
29
100
AcDbVisualStyle
  2

 70
     8
 71
     2
 72
     3
 73
     0
 90
        2
 40
-0.6
 41
30.0
 62
     5
 63
     7
 74
     0
 91
        0
 64
     7
 65
   257
 75
     1
175
     1
 42
1.0
 92
        8
 66
   257
 43
1.0
 76
     1
 77
     6
 78
     2
 67
     7
 79
     3
170
     0
171
     0
290
     0
174
     0
 93
       13
 44
0.0
173
     0
291
     0
 45
0.0
1001
ACAD
1000
AcDbSavedByObjectVersion
1070
     0
  0
VISUALSTYLE
  5
3E
102
{ACAD_XDICTIONARY
360
899
102
}
102
{ACAD_REACTORS
330
29
102
}
330
29
100
AcDbVisualStyle
  2

 70
    27
 71
     2
 72
     2
 73
     1
 90
        2
 40
-0.6
 41
30.0
 62
     5
 63
     7
 74
     0
 91
        4
 64
     7
 65
   257
 75
     1
175
     1
 42
1.0
 92
        8
 66
   257
 43
1.0
 76
     1
 77
     6
 78
     2
 67
     8
 79
     3
170
     0
171
     0
290
     0
174
     0
 93
        5
 44
0.0
173
     0
291
     0
 45
0.0
1001
ACAD
1000
AcDbSavedByObjectVersion
1070
     0
  0
VISUALSTYLE
  5
3D
102
{ACAD_XDICTIONARY
360
897
102
}
102
{ACAD_REACTORS
330
29
102
}
330
29
100
AcDbVisualStyle
  2

 70
    26
 71
     2
 72
     2
 73
     1
 90
        2
 40
-0.6
 41
30.0
 62
     5
 63
     7
 74
     1
 91
       10
 64
     7
 65
   257
 75
     2
175
     1
 42
1.0
 92
        8
 66
   257
 43
1.0
 76
     1
 77
     6
 78
     2
 67
     7
 79
     3
170
     0
171
     0
290
     0
174
     0
 93
        5
 44
0.0
173
     0
291
     0
 45
0.0
1001
ACAD
1000
AcDbSavedByObjectVersion
1070
     0
  0
VISUALSTYLE
  5
3A
102
{ACAD_XDICTIONARY
360
891
102
}
102
{ACAD_REACTORS
330
29
102
}
330
29
100
AcDbVisualStyle
  2

 70
    23
 71
     2
 72
     2
 73
     3
 90
        0
 40
-0.6
 41
-30.0
 62
     5
 63
     7
 74
     2
 91
        2
 64
     7
 65
     7
 75
     1
175
     1
 42
40.0
 92
        8
 66
     7
 43
1.0
 76
     1
 77
     6
 78
     2
 67
     7
 79
     3
170
     0
171
     0
290
     0
174
     0
 93
        1
 44
0.0
173
     0
291
     0
 45
0.0
1001
ACAD
1000
AcDbSavedByObjectVersion
1070
     0
  0
VISUALSTYLE
  5
3B
102
{ACAD_XDICTIONARY
360
893
102
}
102
{ACAD_REACTORS
330
29
102
}
330
29
100
AcDbVisualStyle
  2

 70
    24
 71
     1
 72
     2
 73
     2
 90
        0
 40
-0.6
 41
-30.0
 62
     5
 63
     7
 74
     2
 91
        2
 64
     7
 65
     7
 75
     1
175
     1
 42
40.0
 92
       11
 66
     7
 43
1.0
 76
     1
 77
     6
 78
     2
 67
     7
 79
     6
170
     0
171
     0
290
     0
174
     0
 93
        1
 44
0.0
173
     0
291
     0
 45
0.0
1001
ACAD
1000
AcDbSavedByObjectVersion
1070
     0
  0
VISUALSTYLE
  5
36
102
{ACAD_XDICTIONARY
360
889
102
}
102
{ACAD_REACTORS
330
29
102
}
330
29
100
AcDbVisualStyle
  2

 70
    13
 71
     2
 72
     2
 73
     0
 90
        0
 40
-0.6
 41
-30.0
 62
     5
 63
     7
 74
     1
 91
        4
 64
     7
 65
   257
 75
     1
175
     1
 42
1.0
 92
       12
 66
     7
 43
1.0
 76
     1
 77
     6
 78
     2
 67
     7
 79
     5
170
     0
171
     0
290
     0
174
     0
 93
        1
 44
0.0
173
     0
291
     1
 45
0.0
1001
ACAD
1000
AcDbSavedByObjectVersion
1070
     0
  0
VISUALSTYLE
  5
30
102
{ACAD_XDICTIONARY
360
87D
102
}
102
{ACAD_REACTORS
330
29
102
}
330
29
100
AcDbVisualStyle
  2

 70
     5
 71
     0
 72
     2
 73
     0
 90
        0
 40
-0.6
 41
-30.0
 62
     5
 63
     7
 74
     1
 91
        4
 64
     7
 65
   257
 75
     1
175
     1
 42
1.0
 92
        0
 66
   257
 43
1.0
 76
     1
 77
     6
 78
     2
 67
     7
 79
     3
170
     0
171
     0
290
     0
174
     0
 93
        1
 44
0.0
173
     0
291
     0
 45
0.0
1001
ACAD
1000
AcDbSavedByObjectVersion
1070
     0
  0
VISUALSTYLE
  5
3C
102
{ACAD_XDICTIONARY
360
895
102
}
102
{ACAD_REACTORS
330
29
102
}
330
29
100
AcDbVisualStyle
  2

 70
    25
 71
     2
 72
     2
 73
     1
 90
        1
 40
0.5
 41
-30.0
 62
     5
 63
     7
 74
     1
 91
        0
 64
     7
 65
   257
 75
     1
175
     1
 42
1.0
 92
        8
 66
     7
 43
1.0
 76
     1
 77
     6
 78
     2
 67
     7
 79
     3
170
     0
171
     0
290
     0
174
     0
 93
       13
 44
0.0
173
     0
291
     0
 45
0.0
1001
ACAD
1000
AcDbSavedByObjectVersion
1070
     0
  0
DICTIONARYVAR
  5
50F
102
{ACAD_REACTORS
330
50C
102
}
330
50C
100
DictionaryVariables
280
     0
  1
1:1
  0
DICTIONARYVAR
  5
50E
102
{ACAD_REACTORS
330
50C
102
}
330
50C
100
DictionaryVariables
280
     0
  1
STANDARD
  0
DICTIONARYVAR
  5
50D
102
{ACAD_REACTORS
330
50C
102
}
330
50C
100
DictionaryVariables
280
     0
  1
STANDARD
  0
DICTIONARYVAR
  5
512
102
{ACAD_REACTORS
330
50C
102
}
330
50C
100
DictionaryVariables
280
     0
  1
1
  0
DICTIONARYVAR
  5
511
102
{ACAD_REACTORS
330
50C
102
}
330
50C
100
DictionaryVariables
280
     0
  1
0
  0
DICTIONARYVAR
  5
510
102
{ACAD_REACTORS
330
50C
102
}
330
50C
100
DictionaryVariables
280
     0
  1
127
  0
DICTIONARYVAR
  5
7C3
102
{ACAD_REACTORS
330
50C
102
}
330
50C
100
DictionaryVariables
280
     0
  1
2
  0
DICTIONARY
  5
8A4
330
6E
100
AcDbDictionary
280
     1
281
     1
  3
ACAD_XREC_ROUNDTRIP
360
8A5
  0
DICTIONARY
  5
8A2
330
6A
100
AcDbDictionary
280
     1
281
     1
  3
ACAD_XREC_ROUNDTRIP
360
8A3
  0
DICTIONARY
  5
1A
330
19
100
AcDbDictionary
280
     1
281
     1
  3
ACAD_XREC_ROUNDTRIP
360
519
  3
BUMPTILE
360
1C
  3
DIFFUSETILE
360
1B
  3
OPACITYTILE
360
1F
  3
REFLECTIONTILE
360
1E
  3
REFRACTIONTILE
360
20
  3
SPECULARTILE
360
1D
  0
DICTIONARY
  5
12
330
11
100
AcDbDictionary
280
     1
281
     1
  3
ACAD_XREC_ROUNDTRIP
360
518
  3
BUMPTILE
360
14
  3
DIFFUSETILE
360
13
  3
OPACITYTILE
360
17
  3
REFLECTIONTILE
360
16
  3
REFRACTIONTILE
360
18
  3
SPECULARTILE
360
15
  0
DICTIONARY
  5
22
330
21
100
AcDbDictionary
280
     1
281
     1
  3
ACAD_XREC_ROUNDTRIP
360
51A
  3
BUMPTILE
360
24
  3
DIFFUSETILE
360
23
  3
OPACITYTILE
360
27
  3
REFLECTIONTILE
360
26
  3
REFRACTIONTILE
360
28
  3
SPECULARTILE
360
25
  0
DICTIONARY
  5
514
330
64
100
AcDbDictionary
280
     1
281
     1
  3
ACAD_ROUNDTRIP_2008_TABLESTYLE_CELLSTYLEMAP
360
86A
  3
ACAD_XREC_ROUNDTRIP
360
8A1
  0
DICTIONARY
  5
87B
330
2F
100
AcDbDictionary
280
     1
281
     1
  3
ACAD_XREC_ROUNDTRIP
360
87C
  0
DICTIONARY
  5
8A6
330
39C
100
AcDbDictionary
280
     1
281
     1
  3
ACAD_XREC_ROUNDTRIP
360
8A7
  0
DICTIONARY
  5
879
330
2E
100
AcDbDictionary
280
     1
281
     1
  3
ACAD_XREC_ROUNDTRIP
360
87A
  0
DICTIONARY
  5
887
330
35
100
AcDbDictionary
280
     1
281
     1
  3
ACAD_XREC_ROUNDTRIP
360
888
  0
DICTIONARY
  5
88F
330
39
100
AcDbDictionary
280
     1
281
     1
  3
ACAD_XREC_ROUNDTRIP
360
890
  0
DICTIONARY
  5
881
330
32
100
AcDbDictionary
280
     1
281
     1
  3
ACAD_XREC_ROUNDTRIP
360
882
  0
DICTIONARY
  5
885
330
34
100
AcDbDictionary
280
     1
281
     1
  3
ACAD_XREC_ROUNDTRIP
360
886
  0
DICTIONARY
  5
89F
330
41
100
AcDbDictionary
280
     1
281
     1
  3
ACAD_XREC_ROUNDTRIP
360
8A0
  0
DICTIONARY
  5
88D
330
38
100
AcDbDictionary
280
     1
281
     1
  3
ACAD_XREC_ROUNDTRIP
360
88E
  0
DICTIONARY
  5
871
330
2A
100
AcDbDictionary
280
     1
281
     1
  3
ACAD_XREC_ROUNDTRIP
360
872
  0
DICTIONARY
  5
873
330
2B
100
AcDbDictionary
280
     1
281
     1
  3
ACAD_XREC_ROUNDTRIP
360
874
  0
DICTIONARY
  5
875
330
2C
100
AcDbDictionary
280
     1
281
     1
  3
ACAD_XREC_ROUNDTRIP
360
876
  0
DICTIONARY
  5
877
330
2D
100
AcDbDictionary
280
     1
281
     1
  3
ACAD_XREC_ROUNDTRIP
360
878
  0
DICTIONARY
  5
87F
330
31
100
AcDbDictionary
280
     1
281
     1
  3
ACAD_XREC_ROUNDTRIP
360
880
  0
DICTIONARY
  5
89B
330
3F
100
AcDbDictionary
280
     1
281
     1
  3
ACAD_XREC_ROUNDTRIP
360
89C
  0
DICTIONARY
  5
88B
330
37
100
AcDbDictionary
280
     1
281
     1
  3
ACAD_XREC_ROUNDTRIP
360
88C
  0
DICTIONARY
  5
89D
330
40
100
AcDbDictionary
280
     1
281
     1
  3
ACAD_XREC_ROUNDTRIP
360
89E
  0
DICTIONARY
  5
883
330
33
100
AcDbDictionary
280
     1
281
     1
  3
ACAD_XREC_ROUNDTRIP
360
884
  0
DICTIONARY
  5
899
330
3E
100
AcDbDictionary
280
     1
281
     1
  3
ACAD_XREC_ROUNDTRIP
360
89A
  0
DICTIONARY
  5
897
330
3D
100
AcDbDictionary
280
     1
281
     1
  3
ACAD_XREC_ROUNDTRIP
360
898
  0
DICTIONARY
  5
891
330
3A
100
AcDbDictionary
280
     1
281
     1
  3
ACAD_XREC_ROUNDTRIP
360
892
  0
DICTIONARY
  5
893
330
3B
100
AcDbDictionary
280
     1
281
     1
  3
ACAD_XREC_ROUNDTRIP
360
894
  0
DICTIONARY
  5
889
330
36
100
AcDbDictionary
280
     1
281
     1
  3
ACAD_XREC_ROUNDTRIP
360
88A
  0
DICTIONARY
  5
87D
330
30
100
AcDbDictionary
280
     1
281
     1
  3
ACAD_XREC_ROUNDTRIP
360
87E
  0
DICTIONARY
  5
895
330
3C
100
AcDbDictionary
280
     1
281
     1
  3
ACAD_XREC_ROUNDTRIP
360
896
  0
XRECORD
  5
8A5
102
{ACAD_REACTORS
330
8A4
102
}
330
8A4
100
AcDbXrecord
280
     1
102
SHADEPLOT
 70
     0
102
SHADEPLOTRESLEVEL
 70
     2
102
SHADEPLOTCUSTOMDPI
 70
   300
  0
XRECORD
  5
8A3
102
{ACAD_REACTORS
330
8A2
102
}
330
8A2
100
AcDbXrecord
280
     1
102
SHADEPLOT
 70
     0
102
SHADEPLOTRESLEVEL
 70
     2
102
SHADEPLOTCUSTOMDPI
 70
   300
  0
XRECORD
  5
519
102
{ACAD_REACTORS
330
1A
102
}
330
1A
100
AcDbXrecord
280
     1
102
MATERIAL
148
0.0
149
0.0
149
0.0
 93
        0
 94
      127
282
     0
 72
     0
 77
     0
171
     0
175
     0
179
     0
273
     0
  0
XRECORD
  5
1C
102
{ACAD_REACTORS
330
1A
102
}
330
1A
100
AcDbXrecord
280
     1
270
     1
271
     1
  0
XRECORD
  5
1B
102
{ACAD_REACTORS
330
1A
102
}
330
1A
100
AcDbXrecord
280
     1
270
     1
271
     1
  0
XRECORD
  5
1F
102
{ACAD_REACTORS
330
1A
102
}
330
1A
100
AcDbXrecord
280
     1
270
     1
271
     1
  0
XRECORD
  5
1E
102
{ACAD_REACTORS
330
1A
102
}
330
1A
100
AcDbXrecord
280
     1
270
     1
271
     1
  0
XRECORD
  5
20
102
{ACAD_REACTORS
330
1A
102
}
330
1A
100
AcDbXrecord
280
     1
270
     1
271
     1
  0
XRECORD
  5
1D
102
{ACAD_REACTORS
330
1A
102
}
330
1A
100
AcDbXrecord
280
     1
270
     1
271
     1
  0
XRECORD
  5
518
102
{ACAD_REACTORS
330
12
102
}
330
12
100
AcDbXrecord
280
     1
102
MATERIAL
148
0.0
149
0.0
149
0.0
 93
        0
 94
      127
282
     0
 72
     0
 77
     0
171
     0
175
     0
179
     0
273
     0
  0
XRECORD
  5
14
102
{ACAD_REACTORS
330
12
102
}
330
12
100
AcDbXrecord
280
     1
270
     1
271
     1
  0
XRECORD
  5
13
102
{ACAD_REACTORS
330
12
102
}
330
12
100
AcDbXrecord
280
     1
270
     1
271
     1
  0
XRECORD
  5
17
102
{ACAD_REACTORS
330
12
102
}
330
12
100
AcDbXrecord
280
     1
270
     1
271
     1
  0
XRECORD
  5
16
102
{ACAD_REACTORS
330
12
102
}
330
12
100
AcDbXrecord
280
     1
270
     1
271
     1
  0
XRECORD
  5
18
102
{ACAD_REACTORS
330
12
102
}
330
12
100
AcDbXrecord
280
     1
270
     1
271
     1
  0
XRECORD
  5
15
102
{ACAD_REACTORS
330
12
102
}
330
12
100
AcDbXrecord
280
     1
270
     1
271
     1
  0
XRECORD
  5
51A
102
{ACAD_REACTORS
330
22
102
}
330
22
100
AcDbXrecord
280
     1
102
MATERIAL
148
0.0
149
0.0
149
0.0
 93
        0
 94
      127
282
     0
 72
     0
 77
     0
171
     0
175
     0
179
     0
273
     0
  0
XRECORD
  5
24
102
{ACAD_REACTORS
330
22
102
}
330
22
100
AcDbXrecord
280
     1
270
     1
271
     1
  0
XRECORD
  5
23
102
{ACAD_REACTORS
330
22
102
}
330
22
100
AcDbXrecord
280
     1
270
     1
271
     1
  0
XRECORD
  5
27
102
{ACAD_REACTORS
330
22
102
}
330
22
100
AcDbXrecord
280
     1
270
     1
271
     1
  0
XRECORD
  5
26
102
{ACAD_REACTORS
330
22
102
}
330
22
100
AcDbXrecord
280
     1
270
     1
271
     1
  0
XRECORD
  5
28
102
{ACAD_REACTORS
330
22
102
}
330
22
100
AcDbXrecord
280
     1
270
     1
271
     1
  0
XRECORD
  5
25
102
{ACAD_REACTORS
330
22
102
}
330
22
100
AcDbXrecord
280
     1
270
     1
271
     1
  0
CELLSTYLEMAP
  5
86A
102
{ACAD_REACTORS
330
514
102
}
330
514
100
AcDbCellStyleMap
 90
        3
300
CELLSTYLE
  1
TABLEFORMAT_BEGIN
 90
        5
170
     1
 91
        0
 92
    32768
 62
   257
 93
        1
300
CONTENTFORMAT
  1
CONTENTFORMAT_BEGIN
 90
        0
 91
        0
 92
      512
 93
        0
300

 40
0.0
140
1.0
 94
        5
 62
     0
340
55
144
0.25
309
CONTENTFORMAT_END
171
     1
301
MARGIN
  1
CELLMARGIN_BEGIN
 40
0.06
 40
0.06
 40
0.06
 40
0.06
 40
0.18
 40
0.18
309
CELLMARGIN_END
 94
        6
 95
        1
302
GRIDFORMAT
  1
GRIDFORMAT_BEGIN
 90
        0
 91
        1
 62
     0
 92
       -2
340
0
 93
        0
 40
0.045
309
GRIDFORMAT_END
 95
        2
302
GRIDFORMAT
  1
GRIDFORMAT_BEGIN
 90
        0
 91
        1
 62
     0
 92
       -2
340
0
 93
        0
 40
0.045
309
GRIDFORMAT_END
 95
        4
302
GRIDFORMAT
  1
GRIDFORMAT_BEGIN
 90
        0
 91
        1
 62
     0
 92
       -2
340
0
 93
        0
 40
0.045
309
GRIDFORMAT_END
 95
        8
302
GRIDFORMAT
  1
GRIDFORMAT_BEGIN
 90
        0
 91
        1
 62
     0
 92
       -2
340
0
 93
        0
 40
0.045
309
GRIDFORMAT_END
 95
       16
302
GRIDFORMAT
  1
GRIDFORMAT_BEGIN
 90
        0
 91
        1
 62
     0
 92
       -2
340
0
 93
        0
 40
0.045
309
GRIDFORMAT_END
 95
       32
302
GRIDFORMAT
  1
GRIDFORMAT_BEGIN
 90
        0
 91
        1
 62
     0
 92
       -2
340
0
 93
        0
 40
0.045
309
GRIDFORMAT_END
309
TABLEFORMAT_END
  1
CELLSTYLE_BEGIN
 90
        1
 91
        1
300
_TITLE
309
CELLSTYLE_END
300
CELLSTYLE
  1
TABLEFORMAT_BEGIN
 90
        5
170
     1
 91
        0
 92
        0
 62
   257
 93
        1
300
CONTENTFORMAT
  1
CONTENTFORMAT_BEGIN
 90
        0
 91
        0
 92
      512
 93
        0
300

 40
0.0
140
1.0
 94
        5
 62
     0
340
55
144
0.18
309
CONTENTFORMAT_END
171
     1
301
MARGIN
  1
CELLMARGIN_BEGIN
 40
0.06
 40
0.06
 40
0.06
 40
0.06
 40
0.18
 40
0.18
309
CELLMARGIN_END
 94
        6
 95
        1
302
GRIDFORMAT
  1
GRIDFORMAT_BEGIN
 90
        0
 91
        1
 62
     0
 92
       -2
340
0
 93
        0
 40
0.045
309
GRIDFORMAT_END
 95
        2
302
GRIDFORMAT
  1
GRIDFORMAT_BEGIN
 90
        0
 91
        1
 62
     0
 92
       -2
340
0
 93
        0
 40
0.045
309
GRIDFORMAT_END
 95
        4
302
GRIDFORMAT
  1
GRIDFORMAT_BEGIN
 90
        0
 91
        1
 62
     0
 92
       -2
340
0
 93
        0
 40
0.045
309
GRIDFORMAT_END
 95
        8
302
GRIDFORMAT
  1
GRIDFORMAT_BEGIN
 90
        0
 91
        1
 62
     0
 92
       -2
340
0
 93
        0
 40
0.045
309
GRIDFORMAT_END
 95
       16
302
GRIDFORMAT
  1
GRIDFORMAT_BEGIN
 90
        0
 91
        1
 62
     0
 92
       -2
340
0
 93
        0
 40
0.045
309
GRIDFORMAT_END
 95
       32
302
GRIDFORMAT
  1
GRIDFORMAT_BEGIN
 90
        0
 91
        1
 62
     0
 92
       -2
340
0
 93
        0
 40
0.045
309
GRIDFORMAT_END
309
TABLEFORMAT_END
  1
CELLSTYLE_BEGIN
 90
        2
 91
        1
300
_HEADER
309
CELLSTYLE_END
300
CELLSTYLE
  1
TABLEFORMAT_BEGIN
 90
        5
170
     1
 91
        0
 92
        0
 62
   257
 93
        1
300
CONTENTFORMAT
  1
CONTENTFORMAT_BEGIN
 90
        0
 91
        0
 92
      512
 93
        0
300

 40
0.0
140
1.0
 94
        2
 62
     0
340
55
144
0.18
309
CONTENTFORMAT_END
171
     1
301
MARGIN
  1
CELLMARGIN_BEGIN
 40
0.06
 40
0.06
 40
0.06
 40
0.06
 40
0.18
 40
0.18
309
CELLMARGIN_END
 94
        6
 95
        1
302
GRIDFORMAT
  1
GRIDFORMAT_BEGIN
 90
        0
 91
        1
 62
     0
 92
       -2
340
0
 93
        0
 40
0.045
309
GRIDFORMAT_END
 95
        2
302
GRIDFORMAT
  1
GRIDFORMAT_BEGIN
 90
        0
 91
        1
 62
     0
 92
       -2
340
0
 93
        0
 40
0.045
309
GRIDFORMAT_END
 95
        4
302
GRIDFORMAT
  1
GRIDFORMAT_BEGIN
 90
        0
 91
        1
 62
     0
 92
       -2
340
0
 93
        0
 40
0.045
309
GRIDFORMAT_END
 95
        8
302
GRIDFORMAT
  1
GRIDFORMAT_BEGIN
 90
        0
 91
        1
 62
     0
 92
       -2
340
0
 93
        0
 40
0.045
309
GRIDFORMAT_END
 95
       16
302
GRIDFORMAT
  1
GRIDFORMAT_BEGIN
 90
        0
 91
        1
 62
     0
 92
       -2
340
0
 93
        0
 40
0.045
309
GRIDFORMAT_END
 95
       32
302
GRIDFORMAT
  1
GRIDFORMAT_BEGIN
 90
        0
 91
        1
 62
     0
 92
       -2
340
0
 93
        0
 40
0.045
309
GRIDFORMAT_END
309
TABLEFORMAT_END
  1
CELLSTYLE_BEGIN
 90
        3
 91
        2
300
_DATA
309
CELLSTYLE_END
  0
XRECORD
  5
8A1
102
{ACAD_REACTORS
330
514
102
}
330
514
100
AcDbXrecord
280
     1
102
ACAD_ROUNDTRIP_PRE2007_TABLESTYLE
 90
      512
 91
        0
  1

 92
      512
 93
        0
  2

 94
      512
 95
        0
  3

  0
XRECORD
  5
87C
102
{ACAD_REACTORS
330
87B
102
}
330
87B
100
AcDbXrecord
280
     1
102
RTVSPropertyOp0
 70
     1
102
RTVSPropertyOp1
 70
     1
102
RTVSPropertyOp2
 70
     1
102
RTVSPropertyOp3
 70
     1
102
RTVSPropertyOp4
 70
     1
102
RTVSPropertyOp5
 70
     1
102
RTVSPropertyOp6
 70
     1
102
RTVSPropertyOp7
 70
     1
102
RTVSPropertyOp8
 70
     1
102
RTVSPropertyOp9
 70
     1
102
RTVSPropertyOp10
 70
     1
102
RTVSPropertyOp11
 70
     1
102
RTVSPropertyOp12
 70
     1
102
RTVSPropertyOp13
 70
     1
102
RTVSPropertyOp14
 70
     1
102
RTVSPropertyOp15
 70
     1
102
RTVSPropertyOp16
 70
     1
102
RTVSPropertyOp17
 70
     1
102
RTVSPropertyOp18
 70
     1
102
RTVSPropertyOp19
 70
     1
102
RTVSPropertyOp20
 70
     1
102
RTVSPropertyOp21
 70
     1
102
RTVSPropertyOp22
 70
     1
102
RTVSPropertyOp23
 70
     1
102
RTVSPropertyOp24
 70
     1
102
RTVSPropertyOp25
 70
     1
102
RTVSPropertyOp26
 70
     1
102
RTVSPropertyOp27
 70
     1
102
RTVSPropertyOp28
 70
     1
102
RTVSPropertyOp29
 70
     1
102
RTVSPropertyOp30
 70
     1
102
RTVSPropertyOp31
 70
     1
102
RTVSPropertyOp32
 70
     1
  0
XRECORD
  5
8A7
102
{ACAD_REACTORS
330
8A6
102
}
330
8A6
100
AcDbXrecord
280
     1
102
RTVSPropertyOp0
 70
     1
102
RTVSPropertyOp1
 70
     1
102
RTVSPropertyOp2
 70
     1
102
RTVSPropertyOp3
 70
     1
102
RTVSPropertyOp4
 70
     1
102
RTVSPropertyOp5
 70
     1
102
RTVSPropertyOp6
 70
     1
102
RTVSPropertyOp7
 70
     1
102
RTVSPropertyOp8
 70
     1
102
RTVSPropertyOp9
 70
     1
102
RTVSPropertyOp10
 70
     1
102
RTVSPropertyOp11
 70
     1
102
RTVSPropertyOp12
 70
     1
102
RTVSPropertyOp13
 70
     1
102
RTVSPropertyOp14
 70
     1
102
RTVSPropertyOp15
 70
     1
102
RTVSPropertyOp16
 70
     1
102
RTVSPropertyOp17
 70
     1
102
RTVSPropertyOp18
 70
     1
102
RTVSPropertyOp19
 70
     1
102
RTVSPropertyOp20
 70
     1
102
RTVSPropertyOp21
 70
     1
102
RTVSPropertyOp22
 70
     1
102
RTVSPropertyOp23
 70
     1
102
RTVSPropertyOp24
 70
     1
102
RTVSPropertyOp25
 70
     1
102
RTVSPropertyOp26
 70
     1
102
RTVSPropertyOp27
 70
     1
102
RTVSPropertyOp28
 70
     1
102
RTVSPropertyOp29
 70
     1
102
RTVSPropertyOp30
 70
     1
102
RTVSPropertyOp31
 70
     1
102
RTVSPropertyOp32
 70
     1
  0
XRECORD
  5
87A
102
{ACAD_REACTORS
330
879
102
}
330
879
100
AcDbXrecord
280
     1
102
RTVSPropertyOp0
 70
     1
102
RTVSPropertyOp1
 70
     1
102
RTVSPropertyOp2
 70
     1
102
RTVSPropertyOp3
 70
     1
102
RTVSPropertyOp4
 70
     1
102
RTVSPropertyOp5
 70
     1
102
RTVSPropertyOp6
 70
     1
102
RTVSPropertyOp7
 70
     1
102
RTVSPropertyOp8
 70
     1
102
RTVSPropertyOp9
 70
     1
102
RTVSPropertyOp10
 70
     1
102
RTVSPropertyOp11
 70
     1
102
RTVSPropertyOp12
 70
     1
102
RTVSPropertyOp13
 70
     1
102
RTVSPropertyOp14
 70
     1
102
RTVSPropertyOp15
 70
     1
102
RTVSPropertyOp16
 70
     1
102
RTVSPropertyOp17
 70
     1
102
RTVSPropertyOp18
 70
     1
102
RTVSPropertyOp19
 70
     1
102
RTVSPropertyOp20
 70
     1
102
RTVSPropertyOp21
 70
     1
102
RTVSPropertyOp22
 70
     1
102
RTVSPropertyOp23
 70
     1
102
RTVSPropertyOp24
 70
     1
102
RTVSPropertyOp25
 70
     1
102
RTVSPropertyOp26
 70
     1
102
RTVSPropertyOp27
 70
     1
102
RTVSPropertyOp28
 70
     1
102
RTVSPropertyOp29
 70
     1
102
RTVSPropertyOp30
 70
     1
102
RTVSPropertyOp31
 70
     1
102
RTVSPropertyOp32
 70
     1
  0
XRECORD
  5
888
102
{ACAD_REACTORS
330
887
102
}
330
887
100
AcDbXrecord
280
     1
102
RTVSPropertyOp0
 70
     1
102
RTVSPropertyOp1
 70
     1
102
RTVSPropertyOp2
 70
     1
102
RTVSPropertyOp3
 70
     1
102
RTVSPropertyOp4
 70
     1
102
RTVSPropertyOp5
 70
     1
102
RTVSPropertyOp6
 70
     1
102
RTVSPropertyOp7
 70
     1
102
RTVSPropertyOp8
 70
     1
102
RTVSPropertyOp9
 70
     1
102
RTVSPropertyOp10
 70
     1
102
RTVSPropertyOp11
 70
     1
102
RTVSPropertyOp12
 70
     1
102
RTVSPropertyOp13
 70
     1
102
RTVSPropertyOp14
 70
     1
102
RTVSPropertyOp15
 70
     1
102
RTVSPropertyOp16
 70
     1
102
RTVSPropertyOp17
 70
     1
102
RTVSPropertyOp18
 70
     1
102
RTVSPropertyOp19
 70
     1
102
RTVSPropertyOp20
 70
     1
102
RTVSPropertyOp21
 70
     1
102
RTVSPropertyOp22
 70
     1
102
RTVSPropertyOp23
 70
     1
102
RTVSPropertyOp24
 70
     1
102
RTVSPropertyOp25
 70
     1
102
RTVSPropertyOp26
 70
     1
102
RTVSPropertyOp27
 70
     1
102
RTVSPropertyOp28
 70
     1
102
RTVSPropertyOp29
 70
     1
102
RTVSPropertyOp30
 70
     1
102
RTVSPropertyOp31
 70
     1
102
RTVSPropertyOp32
 70
     1
  0
XRECORD
  5
890
102
{ACAD_REACTORS
330
88F
102
}
330
88F
100
AcDbXrecord
280
     1
102
RTVSPropertyOp0
 70
     1
102
RTVSPropertyOp1
 70
     1
102
RTVSPropertyOp2
 70
     1
102
RTVSPropertyOp3
 70
     1
102
RTVSPropertyOp4
 70
     1
102
RTVSPropertyOp5
 70
     1
102
RTVSPropertyOp6
 70
     1
102
RTVSPropertyOp7
 70
     1
102
RTVSPropertyOp8
 70
     1
102
RTVSPropertyOp9
 70
     1
102
RTVSPropertyOp10
 70
     1
102
RTVSPropertyOp11
 70
     1
102
RTVSPropertyOp12
 70
     1
102
RTVSPropertyOp13
 70
     1
102
RTVSPropertyOp14
 70
     1
102
RTVSPropertyOp15
 70
     1
102
RTVSPropertyOp16
 70
     1
102
RTVSPropertyOp17
 70
     1
102
RTVSPropertyOp18
 70
     1
102
RTVSPropertyOp19
 70
     1
102
RTVSPropertyOp20
 70
     1
102
RTVSPropertyOp21
 70
     1
102
RTVSPropertyOp22
 70
     1
102
RTVSPropertyOp23
 70
     1
102
RTVSPropertyOp24
 70
     1
102
RTVSPropertyOp25
 70
     1
102
RTVSPropertyOp26
 70
     1
102
RTVSPropertyOp27
 70
     1
102
RTVSPropertyOp28
 70
     1
102
RTVSPropertyOp29
 70
     1
102
RTVSPropertyOp30
 70
     1
102
RTVSPropertyOp31
 70
     1
102
RTVSPropertyOp32
 70
     1
  0
XRECORD
  5
882
102
{ACAD_REACTORS
330
881
102
}
330
881
100
AcDbXrecord
280
     1
102
RTVSPropertyOp0
 70
     1
102
RTVSPropertyOp1
 70
     1
102
RTVSPropertyOp2
 70
     1
102
RTVSPropertyOp3
 70
     1
102
RTVSPropertyOp4
 70
     1
102
RTVSPropertyOp5
 70
     1
102
RTVSPropertyOp6
 70
     1
102
RTVSPropertyOp7
 70
     1
102
RTVSPropertyOp8
 70
     1
102
RTVSPropertyOp9
 70
     1
102
RTVSPropertyOp10
 70
     1
102
RTVSPropertyOp11
 70
     1
102
RTVSPropertyOp12
 70
     1
102
RTVSPropertyOp13
 70
     1
102
RTVSPropertyOp14
 70
     1
102
RTVSPropertyOp15
 70
     1
102
RTVSPropertyOp16
 70
     1
102
RTVSPropertyOp17
 70
     1
102
RTVSPropertyOp18
 70
     1
102
RTVSPropertyOp19
 70
     1
102
RTVSPropertyOp20
 70
     1
102
RTVSPropertyOp21
 70
     1
102
RTVSPropertyOp22
 70
     1
102
RTVSPropertyOp23
 70
     1
102
RTVSPropertyOp24
 70
     1
102
RTVSPropertyOp25
 70
     1
102
RTVSPropertyOp26
 70
     1
102
RTVSPropertyOp27
 70
     1
102
RTVSPropertyOp28
 70
     1
102
RTVSPropertyOp29
 70
     1
102
RTVSPropertyOp30
 70
     1
102
RTVSPropertyOp31
 70
     1
102
RTVSPropertyOp32
 70
     1
  0
XRECORD
  5
886
102
{ACAD_REACTORS
330
885
102
}
330
885
100
AcDbXrecord
280
     1
102
RTVSPropertyOp0
 70
     1
102
RTVSPropertyOp1
 70
     1
102
RTVSPropertyOp2
 70
     1
102
RTVSPropertyOp3
 70
     1
102
RTVSPropertyOp4
 70
     1
102
RTVSPropertyOp5
 70
     1
102
RTVSPropertyOp6
 70
     1
102
RTVSPropertyOp7
 70
     1
102
RTVSPropertyOp8
 70
     1
102
RTVSPropertyOp9
 70
     1
102
RTVSPropertyOp10
 70
     1
102
RTVSPropertyOp11
 70
     1
102
RTVSPropertyOp12
 70
     1
102
RTVSPropertyOp13
 70
     1
102
RTVSPropertyOp14
 70
     1
102
RTVSPropertyOp15
 70
     1
102
RTVSPropertyOp16
 70
     1
102
RTVSPropertyOp17
 70
     1
102
RTVSPropertyOp18
 70
     1
102
RTVSPropertyOp19
 70
     1
102
RTVSPropertyOp20
 70
     1
102
RTVSPropertyOp21
 70
     1
102
RTVSPropertyOp22
 70
     1
102
RTVSPropertyOp23
 70
     1
102
RTVSPropertyOp24
 70
     1
102
RTVSPropertyOp25
 70
     1
102
RTVSPropertyOp26
 70
     1
102
RTVSPropertyOp27
 70
     1
102
RTVSPropertyOp28
 70
     1
102
RTVSPropertyOp29
 70
     1
102
RTVSPropertyOp30
 70
     1
102
RTVSPropertyOp31
 70
     1
102
RTVSPropertyOp32
 70
     1
  0
XRECORD
  5
8A0
102
{ACAD_REACTORS
330
89F
102
}
330
89F
100
AcDbXrecord
280
     1
102
RTVSPropertyOp0
 70
     0
102
RTVSPropertyOp1
 70
     0
102
RTVSPropertyOp2
 70
     0
102
RTVSPropertyOp3
 70
     0
102
RTVSPropertyOp4
 70
     0
102
RTVSPropertyOp5
 70
     0
102
RTVSPropertyOp6
 70
     0
102
RTVSPropertyOp7
 70
     0
102
RTVSPropertyOp8
 70
     0
102
RTVSPropertyOp9
 70
     0
102
RTVSPropertyOp10
 70
     0
102
RTVSPropertyOp11
 70
     0
102
RTVSPropertyOp12
 70
     0
102
RTVSPropertyOp13
 70
     0
102
RTVSPropertyOp14
 70
     2
102
RTVSPropertyOp15
 70
     0
102
RTVSPropertyOp16
 70
     0
102
RTVSPropertyOp17
 70
     0
102
RTVSPropertyOp18
 70
     0
102
RTVSPropertyOp19
 70
     0
102
RTVSPropertyOp20
 70
     0
102
RTVSPropertyOp21
 70
     0
102
RTVSPropertyOp22
 70
     0
102
RTVSPropertyOp23
 70
     0
102
RTVSPropertyOp24
 70
     0
102
RTVSPropertyOp25
 70
     0
102
RTVSPropertyOp26
 70
     0
102
RTVSPropertyOp27
 70
     0
102
RTVSPropertyOp28
 70
     0
102
RTVSPropertyOp29
 70
     0
102
RTVSPropertyOp30
 70
     0
102
RTVSPropertyOp31
 70
     0
102
RTVSPropertyOp32
 70
     0
  0
XRECORD
  5
88E
102
{ACAD_REACTORS
330
88D
102
}
330
88D
100
AcDbXrecord
280
     1
102
RTVSPropertyOp0
 70
     1
102
RTVSPropertyOp1
 70
     1
102
RTVSPropertyOp2
 70
     1
102
RTVSPropertyOp3
 70
     1
102
RTVSPropertyOp4
 70
     1
102
RTVSPropertyOp5
 70
     1
102
RTVSPropertyOp6
 70
     1
102
RTVSPropertyOp7
 70
     1
102
RTVSPropertyOp8
 70
     1
102
RTVSPropertyOp9
 70
     1
102
RTVSPropertyOp10
 70
     1
102
RTVSPropertyOp11
 70
     1
102
RTVSPropertyOp12
 70
     1
102
RTVSPropertyOp13
 70
     1
102
RTVSPropertyOp14
 70
     1
102
RTVSPropertyOp15
 70
     1
102
RTVSPropertyOp16
 70
     1
102
RTVSPropertyOp17
 70
     1
102
RTVSPropertyOp18
 70
     1
102
RTVSPropertyOp19
 70
     1
102
RTVSPropertyOp20
 70
     1
102
RTVSPropertyOp21
 70
     1
102
RTVSPropertyOp22
 70
     1
102
RTVSPropertyOp23
 70
     1
102
RTVSPropertyOp24
 70
     1
102
RTVSPropertyOp25
 70
     1
102
RTVSPropertyOp26
 70
     1
102
RTVSPropertyOp27
 70
     1
102
RTVSPropertyOp28
 70
     1
102
RTVSPropertyOp29
 70
     1
102
RTVSPropertyOp30
 70
     1
102
RTVSPropertyOp31
 70
     1
102
RTVSPropertyOp32
 70
     1
  0
XRECORD
  5
872
102
{ACAD_REACTORS
330
871
102
}
330
871
100
AcDbXrecord
280
     1
102
RTVSPropertyOp0
 70
     1
102
RTVSPropertyOp1
 70
     1
102
RTVSPropertyOp2
 70
     1
102
RTVSPropertyOp3
 70
     1
102
RTVSPropertyOp4
 70
     1
102
RTVSPropertyOp5
 70
     1
102
RTVSPropertyOp6
 70
     1
102
RTVSPropertyOp7
 70
     1
102
RTVSPropertyOp8
 70
     1
102
RTVSPropertyOp9
 70
     1
102
RTVSPropertyOp10
 70
     1
102
RTVSPropertyOp11
 70
     1
102
RTVSPropertyOp12
 70
     1
102
RTVSPropertyOp13
 70
     1
102
RTVSPropertyOp14
 70
     1
102
RTVSPropertyOp15
 70
     1
102
RTVSPropertyOp16
 70
     1
102
RTVSPropertyOp17
 70
     1
102
RTVSPropertyOp18
 70
     1
102
RTVSPropertyOp19
 70
     1
102
RTVSPropertyOp20
 70
     1
102
RTVSPropertyOp21
 70
     1
102
RTVSPropertyOp22
 70
     1
102
RTVSPropertyOp23
 70
     1
102
RTVSPropertyOp24
 70
     1
102
RTVSPropertyOp25
 70
     1
102
RTVSPropertyOp26
 70
     1
102
RTVSPropertyOp27
 70
     1
102
RTVSPropertyOp28
 70
     1
102
RTVSPropertyOp29
 70
     1
102
RTVSPropertyOp30
 70
     1
102
RTVSPropertyOp31
 70
     1
102
RTVSPropertyOp32
 70
     1
  0
XRECORD
  5
874
102
{ACAD_REACTORS
330
873
102
}
330
873
100
AcDbXrecord
280
     1
102
RTVSPropertyOp0
 70
     1
102
RTVSPropertyOp1
 70
     1
102
RTVSPropertyOp2
 70
     1
102
RTVSPropertyOp3
 70
     1
102
RTVSPropertyOp4
 70
     1
102
RTVSPropertyOp5
 70
     1
102
RTVSPropertyOp6
 70
     1
102
RTVSPropertyOp7
 70
     1
102
RTVSPropertyOp8
 70
     1
102
RTVSPropertyOp9
 70
     1
102
RTVSPropertyOp10
 70
     1
102
RTVSPropertyOp11
 70
     1
102
RTVSPropertyOp12
 70
     1
102
RTVSPropertyOp13
 70
     1
102
RTVSPropertyOp14
 70
     1
102
RTVSPropertyOp15
 70
     1
102
RTVSPropertyOp16
 70
     1
102
RTVSPropertyOp17
 70
     1
102
RTVSPropertyOp18
 70
     1
102
RTVSPropertyOp19
 70
     1
102
RTVSPropertyOp20
 70
     1
102
RTVSPropertyOp21
 70
     1
102
RTVSPropertyOp22
 70
     1
102
RTVSPropertyOp23
 70
     1
102
RTVSPropertyOp24
 70
     1
102
RTVSPropertyOp25
 70
     1
102
RTVSPropertyOp26
 70
     1
102
RTVSPropertyOp27
 70
     1
102
RTVSPropertyOp28
 70
     1
102
RTVSPropertyOp29
 70
     1
102
RTVSPropertyOp30
 70
     1
102
RTVSPropertyOp31
 70
     1
102
RTVSPropertyOp32
 70
     1
  0
XRECORD
  5
876
102
{ACAD_REACTORS
330
875
102
}
330
875
100
AcDbXrecord
280
     1
102
RTVSPropertyOp0
 70
     1
102
RTVSPropertyOp1
 70
     1
102
RTVSPropertyOp2
 70
     1
102
RTVSPropertyOp3
 70
     1
102
RTVSPropertyOp4
 70
     1
102
RTVSPropertyOp5
 70
     1
102
RTVSPropertyOp6
 70
     1
102
RTVSPropertyOp7
 70
     1
102
RTVSPropertyOp8
 70
     1
102
RTVSPropertyOp9
 70
     1
102
RTVSPropertyOp10
 70
     1
102
RTVSPropertyOp11
 70
     1
102
RTVSPropertyOp12
 70
     1
102
RTVSPropertyOp13
 70
     1
102
RTVSPropertyOp14
 70
     1
102
RTVSPropertyOp15
 70
     1
102
RTVSPropertyOp16
 70
     1
102
RTVSPropertyOp17
 70
     1
102
RTVSPropertyOp18
 70
     1
102
RTVSPropertyOp19
 70
     1
102
RTVSPropertyOp20
 70
     1
102
RTVSPropertyOp21
 70
     1
102
RTVSPropertyOp22
 70
     1
102
RTVSPropertyOp23
 70
     1
102
RTVSPropertyOp24
 70
     1
102
RTVSPropertyOp25
 70
     1
102
RTVSPropertyOp26
 70
     1
102
RTVSPropertyOp27
 70
     1
102
RTVSPropertyOp28
 70
     1
102
RTVSPropertyOp29
 70
     1
102
RTVSPropertyOp30
 70
     1
102
RTVSPropertyOp31
 70
     1
102
RTVSPropertyOp32
 70
     1
  0
XRECORD
  5
878
102
{ACAD_REACTORS
330
877
102
}
330
877
100
AcDbXrecord
280
     1
102
RTVSPropertyOp0
 70
     1
102
RTVSPropertyOp1
 70
     1
102
RTVSPropertyOp2
 70
     1
102
RTVSPropertyOp3
 70
     1
102
RTVSPropertyOp4
 70
     1
102
RTVSPropertyOp5
 70
     1
102
RTVSPropertyOp6
 70
     1
102
RTVSPropertyOp7
 70
     1
102
RTVSPropertyOp8
 70
     1
102
RTVSPropertyOp9
 70
     1
102
RTVSPropertyOp10
 70
     1
102
RTVSPropertyOp11
 70
     1
102
RTVSPropertyOp12
 70
     1
102
RTVSPropertyOp13
 70
     1
102
RTVSPropertyOp14
 70
     1
102
RTVSPropertyOp15
 70
     1
102
RTVSPropertyOp16
 70
     1
102
RTVSPropertyOp17
 70
     1
102
RTVSPropertyOp18
 70
     1
102
RTVSPropertyOp19
 70
     1
102
RTVSPropertyOp20
 70
     1
102
RTVSPropertyOp21
 70
     1
102
RTVSPropertyOp22
 70
     1
102
RTVSPropertyOp23
 70
     1
102
RTVSPropertyOp24
 70
     1
102
RTVSPropertyOp25
 70
     1
102
RTVSPropertyOp26
 70
     1
102
RTVSPropertyOp27
 70
     1
102
RTVSPropertyOp28
 70
     1
102
RTVSPropertyOp29
 70
     1
102
RTVSPropertyOp30
 70
     1
102
RTVSPropertyOp31
 70
     1
102
RTVSPropertyOp32
 70
     1
  0
XRECORD
  5
880
102
{ACAD_REACTORS
330
87F
102
}
330
87F
100
AcDbXrecord
280
     1
102
RTVSPropertyOp0
 70
     1
102
RTVSPropertyOp1
 70
     1
102
RTVSPropertyOp2
 70
     1
102
RTVSPropertyOp3
 70
     1
102
RTVSPropertyOp4
 70
     1
102
RTVSPropertyOp5
 70
     1
102
RTVSPropertyOp6
 70
     1
102
RTVSPropertyOp7
 70
     1
102
RTVSPropertyOp8
 70
     1
102
RTVSPropertyOp9
 70
     1
102
RTVSPropertyOp10
 70
     1
102
RTVSPropertyOp11
 70
     1
102
RTVSPropertyOp12
 70
     1
102
RTVSPropertyOp13
 70
     1
102
RTVSPropertyOp14
 70
     1
102
RTVSPropertyOp15
 70
     1
102
RTVSPropertyOp16
 70
     1
102
RTVSPropertyOp17
 70
     1
102
RTVSPropertyOp18
 70
     1
102
RTVSPropertyOp19
 70
     1
102
RTVSPropertyOp20
 70
     1
102
RTVSPropertyOp21
 70
     1
102
RTVSPropertyOp22
 70
     1
102
RTVSPropertyOp23
 70
     1
102
RTVSPropertyOp24
 70
     1
102
RTVSPropertyOp25
 70
     1
102
RTVSPropertyOp26
 70
     1
102
RTVSPropertyOp27
 70
     1
102
RTVSPropertyOp28
 70
     1
102
RTVSPropertyOp29
 70
     1
102
RTVSPropertyOp30
 70
     1
102
RTVSPropertyOp31
 70
     1
102
RTVSPropertyOp32
 70
     1
  0
XRECORD
  5
89C
102
{ACAD_REACTORS
330
89B
102
}
330
89B
100
AcDbXrecord
280
     1
102
RTVSPropertyOp0
 70
     0
102
RTVSPropertyOp1
 70
     0
102
RTVSPropertyOp2
 70
     0
102
RTVSPropertyOp3
 70
     0
102
RTVSPropertyOp4
 70
     0
102
RTVSPropertyOp5
 70
     0
102
RTVSPropertyOp6
 70
     0
102
RTVSPropertyOp7
 70
     0
102
RTVSPropertyOp8
 70
     0
102
RTVSPropertyOp9
 70
     0
102
RTVSPropertyOp10
 70
     0
102
RTVSPropertyOp11
 70
     0
102
RTVSPropertyOp12
 70
     0
102
RTVSPropertyOp13
 70
     0
102
RTVSPropertyOp14
 70
     2
102
RTVSPropertyOp15
 70
     0
102
RTVSPropertyOp16
 70
     0
102
RTVSPropertyOp17
 70
     0
102
RTVSPropertyOp18
 70
     0
102
RTVSPropertyOp19
 70
     0
102
RTVSPropertyOp20
 70
     0
102
RTVSPropertyOp21
 70
     0
102
RTVSPropertyOp22
 70
     0
102
RTVSPropertyOp23
 70
     0
102
RTVSPropertyOp24
 70
     0
102
RTVSPropertyOp25
 70
     0
102
RTVSPropertyOp26
 70
     0
102
RTVSPropertyOp27
 70
     0
102
RTVSPropertyOp28
 70
     0
102
RTVSPropertyOp29
 70
     0
102
RTVSPropertyOp30
 70
     0
102
RTVSPropertyOp31
 70
     0
102
RTVSPropertyOp32
 70
     0
  0
XRECORD
  5
88C
102
{ACAD_REACTORS
330
88B
102
}
330
88B
100
AcDbXrecord
280
     1
102
RTVSPropertyOp0
 70
     1
102
RTVSPropertyOp1
 70
     1
102
RTVSPropertyOp2
 70
     1
102
RTVSPropertyOp3
 70
     1
102
RTVSPropertyOp4
 70
     1
102
RTVSPropertyOp5
 70
     1
102
RTVSPropertyOp6
 70
     1
102
RTVSPropertyOp7
 70
     1
102
RTVSPropertyOp8
 70
     1
102
RTVSPropertyOp9
 70
     1
102
RTVSPropertyOp10
 70
     1
102
RTVSPropertyOp11
 70
     1
102
RTVSPropertyOp12
 70
     1
102
RTVSPropertyOp13
 70
     1
102
RTVSPropertyOp14
 70
     1
102
RTVSPropertyOp15
 70
     1
102
RTVSPropertyOp16
 70
     1
102
RTVSPropertyOp17
 70
     1
102
RTVSPropertyOp18
 70
     1
102
RTVSPropertyOp19
 70
     1
102
RTVSPropertyOp20
 70
     1
102
RTVSPropertyOp21
 70
     1
102
RTVSPropertyOp22
 70
     1
102
RTVSPropertyOp23
 70
     1
102
RTVSPropertyOp24
 70
     1
102
RTVSPropertyOp25
 70
     1
102
RTVSPropertyOp26
 70
     1
102
RTVSPropertyOp27
 70
     1
102
RTVSPropertyOp28
 70
     1
102
RTVSPropertyOp29
 70
     1
102
RTVSPropertyOp30
 70
     1
102
RTVSPropertyOp31
 70
     1
102
RTVSPropertyOp32
 70
     1
  0
XRECORD
  5
89E
102
{ACAD_REACTORS
330
89D
102
}
330
89D
100
AcDbXrecord
280
     1
102
RTVSPropertyOp0
 70
     0
102
RTVSPropertyOp1
 70
     0
102
RTVSPropertyOp2
 70
     0
102
RTVSPropertyOp3
 70
     0
102
RTVSPropertyOp4
 70
     0
102
RTVSPropertyOp5
 70
     0
102
RTVSPropertyOp6
 70
     0
102
RTVSPropertyOp7
 70
     0
102
RTVSPropertyOp8
 70
     0
102
RTVSPropertyOp9
 70
     0
102
RTVSPropertyOp10
 70
     0
102
RTVSPropertyOp11
 70
     0
102
RTVSPropertyOp12
 70
     0
102
RTVSPropertyOp13
 70
     0
102
RTVSPropertyOp14
 70
     2
102
RTVSPropertyOp15
 70
     0
102
RTVSPropertyOp16
 70
     0
102
RTVSPropertyOp17
 70
     0
102
RTVSPropertyOp18
 70
     0
102
RTVSPropertyOp19
 70
     0
102
RTVSPropertyOp20
 70
     0
102
RTVSPropertyOp21
 70
     0
102
RTVSPropertyOp22
 70
     0
102
RTVSPropertyOp23
 70
     0
102
RTVSPropertyOp24
 70
     0
102
RTVSPropertyOp25
 70
     0
102
RTVSPropertyOp26
 70
     0
102
RTVSPropertyOp27
 70
     0
102
RTVSPropertyOp28
 70
     0
102
RTVSPropertyOp29
 70
     0
102
RTVSPropertyOp30
 70
     0
102
RTVSPropertyOp31
 70
     0
102
RTVSPropertyOp32
 70
     0
  0
XRECORD
  5
884
102
{ACAD_REACTORS
330
883
102
}
330
883
100
AcDbXrecord
280
     1
102
RTVSPropertyOp0
 70
     1
102
RTVSPropertyOp1
 70
     1
102
RTVSPropertyOp2
 70
     1
102
RTVSPropertyOp3
 70
     1
102
RTVSPropertyOp4
 70
     1
102
RTVSPropertyOp5
 70
     1
102
RTVSPropertyOp6
 70
     1
102
RTVSPropertyOp7
 70
     1
102
RTVSPropertyOp8
 70
     1
102
RTVSPropertyOp9
 70
     1
102
RTVSPropertyOp10
 70
     1
102
RTVSPropertyOp11
 70
     1
102
RTVSPropertyOp12
 70
     1
102
RTVSPropertyOp13
 70
     1
102
RTVSPropertyOp14
 70
     1
102
RTVSPropertyOp15
 70
     1
102
RTVSPropertyOp16
 70
     1
102
RTVSPropertyOp17
 70
     1
102
RTVSPropertyOp18
 70
     1
102
RTVSPropertyOp19
 70
     1
102
RTVSPropertyOp20
 70
     1
102
RTVSPropertyOp21
 70
     1
102
RTVSPropertyOp22
 70
     1
102
RTVSPropertyOp23
 70
     1
102
RTVSPropertyOp24
 70
     1
102
RTVSPropertyOp25
 70
     1
102
RTVSPropertyOp26
 70
     1
102
RTVSPropertyOp27
 70
     1
102
RTVSPropertyOp28
 70
     1
102
RTVSPropertyOp29
 70
     1
102
RTVSPropertyOp30
 70
     1
102
RTVSPropertyOp31
 70
     1
102
RTVSPropertyOp32
 70
     1
  0
XRECORD
  5
89A
102
{ACAD_REACTORS
330
899
102
}
330
899
100
AcDbXrecord
280
     1
102
RTVSPropertyOp0
 70
     1
102
RTVSPropertyOp1
 70
     1
102
RTVSPropertyOp2
 70
     1
102
RTVSPropertyOp3
 70
     1
102
RTVSPropertyOp4
 70
     1
102
RTVSPropertyOp5
 70
     1
102
RTVSPropertyOp6
 70
     1
102
RTVSPropertyOp7
 70
     1
102
RTVSPropertyOp8
 70
     1
102
RTVSPropertyOp9
 70
     1
102
RTVSPropertyOp10
 70
     1
102
RTVSPropertyOp11
 70
     1
102
RTVSPropertyOp12
 70
     1
102
RTVSPropertyOp13
 70
     1
102
RTVSPropertyOp14
 70
     1
102
RTVSPropertyOp15
 70
     1
102
RTVSPropertyOp16
 70
     1
102
RTVSPropertyOp17
 70
     1
102
RTVSPropertyOp18
 70
     1
102
RTVSPropertyOp19
 70
     1
102
RTVSPropertyOp20
 70
     1
102
RTVSPropertyOp21
 70
     1
102
RTVSPropertyOp22
 70
     1
102
RTVSPropertyOp23
 70
     1
102
RTVSPropertyOp24
 70
     1
102
RTVSPropertyOp25
 70
     1
102
RTVSPropertyOp26
 70
     1
102
RTVSPropertyOp27
 70
     1
102
RTVSPropertyOp28
 70
     1
102
RTVSPropertyOp29
 70
     1
102
RTVSPropertyOp30
 70
     1
102
RTVSPropertyOp31
 70
     1
102
RTVSPropertyOp32
 70
     1
  0
XRECORD
  5
898
102
{ACAD_REACTORS
330
897
102
}
330
897
100
AcDbXrecord
280
     1
102
RTVSPropertyOp0
 70
     1
102
RTVSPropertyOp1
 70
     1
102
RTVSPropertyOp2
 70
     1
102
RTVSPropertyOp3
 70
     1
102
RTVSPropertyOp4
 70
     1
102
RTVSPropertyOp5
 70
     1
102
RTVSPropertyOp6
 70
     1
102
RTVSPropertyOp7
 70
     1
102
RTVSPropertyOp8
 70
     1
102
RTVSPropertyOp9
 70
     1
102
RTVSPropertyOp10
 70
     1
102
RTVSPropertyOp11
 70
     1
102
RTVSPropertyOp12
 70
     1
102
RTVSPropertyOp13
 70
     1
102
RTVSPropertyOp14
 70
     1
102
RTVSPropertyOp15
 70
     1
102
RTVSPropertyOp16
 70
     1
102
RTVSPropertyOp17
 70
     1
102
RTVSPropertyOp18
 70
     1
102
RTVSPropertyOp19
 70
     1
102
RTVSPropertyOp20
 70
     1
102
RTVSPropertyOp21
 70
     1
102
RTVSPropertyOp22
 70
     1
102
RTVSPropertyOp23
 70
     1
102
RTVSPropertyOp24
 70
     1
102
RTVSPropertyOp25
 70
     1
102
RTVSPropertyOp26
 70
     1
102
RTVSPropertyOp27
 70
     1
102
RTVSPropertyOp28
 70
     1
102
RTVSPropertyOp29
 70
     1
102
RTVSPropertyOp30
 70
     1
102
RTVSPropertyOp31
 70
     1
102
RTVSPropertyOp32
 70
     1
  0
XRECORD
  5
892
102
{ACAD_REACTORS
330
891
102
}
330
891
100
AcDbXrecord
280
     1
102
RTVSPropertyOp0
 70
     1
102
RTVSPropertyOp1
 70
     1
102
RTVSPropertyOp2
 70
     1
102
RTVSPropertyOp3
 70
     1
102
RTVSPropertyOp4
 70
     1
102
RTVSPropertyOp5
 70
     1
102
RTVSPropertyOp6
 70
     1
102
RTVSPropertyOp7
 70
     1
102
RTVSPropertyOp8
 70
     1
102
RTVSPropertyOp9
 70
     1
102
RTVSPropertyOp10
 70
     1
102
RTVSPropertyOp11
 70
     1
102
RTVSPropertyOp12
 70
     1
102
RTVSPropertyOp13
 70
     1
102
RTVSPropertyOp14
 70
     1
102
RTVSPropertyOp15
 70
     1
102
RTVSPropertyOp16
 70
     1
102
RTVSPropertyOp17
 70
     1
102
RTVSPropertyOp18
 70
     1
102
RTVSPropertyOp19
 70
     1
102
RTVSPropertyOp20
 70
     1
102
RTVSPropertyOp21
 70
     1
102
RTVSPropertyOp22
 70
     1
102
RTVSPropertyOp23
 70
     1
102
RTVSPropertyOp24
 70
     1
102
RTVSPropertyOp25
 70
     1
102
RTVSPropertyOp26
 70
     1
102
RTVSPropertyOp27
 70
     1
102
RTVSPropertyOp28
 70
     1
102
RTVSPropertyOp29
 70
     1
102
RTVSPropertyOp30
 70
     1
102
RTVSPropertyOp31
 70
     1
102
RTVSPropertyOp32
 70
     1
  0
XRECORD
  5
894
102
{ACAD_REACTORS
330
893
102
}
330
893
100
AcDbXrecord
280
     1
102
RTVSPropertyOp0
 70
     1
102
RTVSPropertyOp1
 70
     1
102
RTVSPropertyOp2
 70
     1
102
RTVSPropertyOp3
 70
     1
102
RTVSPropertyOp4
 70
     1
102
RTVSPropertyOp5
 70
     1
102
RTVSPropertyOp6
 70
     1
102
RTVSPropertyOp7
 70
     1
102
RTVSPropertyOp8
 70
     1
102
RTVSPropertyOp9
 70
     1
102
RTVSPropertyOp10
 70
     1
102
RTVSPropertyOp11
 70
     1
102
RTVSPropertyOp12
 70
     1
102
RTVSPropertyOp13
 70
     1
102
RTVSPropertyOp14
 70
     1
102
RTVSPropertyOp15
 70
     1
102
RTVSPropertyOp16
 70
     1
102
RTVSPropertyOp17
 70
     1
102
RTVSPropertyOp18
 70
     1
102
RTVSPropertyOp19
 70
     1
102
RTVSPropertyOp20
 70
     1
102
RTVSPropertyOp21
 70
     1
102
RTVSPropertyOp22
 70
     1
102
RTVSPropertyOp23
 70
     1
102
RTVSPropertyOp24
 70
     1
102
RTVSPropertyOp25
 70
     1
102
RTVSPropertyOp26
 70
     1
102
RTVSPropertyOp27
 70
     1
102
RTVSPropertyOp28
 70
     1
102
RTVSPropertyOp29
 70
     1
102
RTVSPropertyOp30
 70
     1
102
RTVSPropertyOp31
 70
     1
102
RTVSPropertyOp32
 70
     1
  0
XRECORD
  5
88A
102
{ACAD_REACTORS
330
889
102
}
330
889
100
AcDbXrecord
280
     1
102
RTVSPropertyOp0
 70
     1
102
RTVSPropertyOp1
 70
     1
102
RTVSPropertyOp2
 70
     1
102
RTVSPropertyOp3
 70
     1
102
RTVSPropertyOp4
 70
     1
102
RTVSPropertyOp5
 70
     1
102
RTVSPropertyOp6
 70
     1
102
RTVSPropertyOp7
 70
     1
102
RTVSPropertyOp8
 70
     1
102
RTVSPropertyOp9
 70
     1
102
RTVSPropertyOp10
 70
     1
102
RTVSPropertyOp11
 70
     1
102
RTVSPropertyOp12
 70
     1
102
RTVSPropertyOp13
 70
     1
102
RTVSPropertyOp14
 70
     1
102
RTVSPropertyOp15
 70
     1
102
RTVSPropertyOp16
 70
     1
102
RTVSPropertyOp17
 70
     1
102
RTVSPropertyOp18
 70
     1
102
RTVSPropertyOp19
 70
     1
102
RTVSPropertyOp20
 70
     1
102
RTVSPropertyOp21
 70
     1
102
RTVSPropertyOp22
 70
     1
102
RTVSPropertyOp23
 70
     1
102
RTVSPropertyOp24
 70
     1
102
RTVSPropertyOp25
 70
     1
102
RTVSPropertyOp26
 70
     1
102
RTVSPropertyOp27
 70
     1
102
RTVSPropertyOp28
 70
     1
102
RTVSPropertyOp29
 70
     1
102
RTVSPropertyOp30
 70
     1
102
RTVSPropertyOp31
 70
     1
102
RTVSPropertyOp32
 70
     1
  0
XRECORD
  5
87E
102
{ACAD_REACTORS
330
87D
102
}
330
87D
100
AcDbXrecord
280
     1
102
RTVSPropertyOp0
 70
     1
102
RTVSPropertyOp1
 70
     1
102
RTVSPropertyOp2
 70
     1
102
RTVSPropertyOp3
 70
     1
102
RTVSPropertyOp4
 70
     1
102
RTVSPropertyOp5
 70
     1
102
RTVSPropertyOp6
 70
     1
102
RTVSPropertyOp7
 70
     1
102
RTVSPropertyOp8
 70
     1
102
RTVSPropertyOp9
 70
     1
102
RTVSPropertyOp10
 70
     1
102
RTVSPropertyOp11
 70
     1
102
RTVSPropertyOp12
 70
     1
102
RTVSPropertyOp13
 70
     1
102
RTVSPropertyOp14
 70
     1
102
RTVSPropertyOp15
 70
     1
102
RTVSPropertyOp16
 70
     1
102
RTVSPropertyOp17
 70
     1
102
RTVSPropertyOp18
 70
     1
102
RTVSPropertyOp19
 70
     1
102
RTVSPropertyOp20
 70
     1
102
RTVSPropertyOp21
 70
     1
102
RTVSPropertyOp22
 70
     1
102
RTVSPropertyOp23
 70
     1
102
RTVSPropertyOp24
 70
     1
102
RTVSPropertyOp25
 70
     1
102
RTVSPropertyOp26
 70
     1
102
RTVSPropertyOp27
 70
     1
102
RTVSPropertyOp28
 70
     1
102
RTVSPropertyOp29
 70
     1
102
RTVSPropertyOp30
 70
     1
102
RTVSPropertyOp31
 70
     1
102
RTVSPropertyOp32
 70
     1
  0
XRECORD
  5
896
102
{ACAD_REACTORS
330
895
102
}
330
895
100
AcDbXrecord
280
     1
102
RTVSPropertyOp0
 70
     1
102
RTVSPropertyOp1
 70
     1
102
RTVSPropertyOp2
 70
     1
102
RTVSPropertyOp3
 70
     1
102
RTVSPropertyOp4
 70
     1
102
RTVSPropertyOp5
 70
     1
102
RTVSPropertyOp6
 70
     1
102
RTVSPropertyOp7
 70
     1
102
RTVSPropertyOp8
 70
     1
102
RTVSPropertyOp9
 70
     1
102
RTVSPropertyOp10
 70
     1
102
RTVSPropertyOp11
 70
     1
102
RTVSPropertyOp12
 70
     1
102
RTVSPropertyOp13
 70
     1
102
RTVSPropertyOp14
 70
     1
102
RTVSPropertyOp15
 70
     1
102
RTVSPropertyOp16
 70
     1
102
RTVSPropertyOp17
 70
     1
102
RTVSPropertyOp18
 70
     1
102
RTVSPropertyOp19
 70
     1
102
RTVSPropertyOp20
 70
     1
102
RTVSPropertyOp21
 70
     1
102
RTVSPropertyOp22
 70
     1
102
RTVSPropertyOp23
 70
     1
102
RTVSPropertyOp24
 70
     1
102
RTVSPropertyOp25
 70
     1
102
RTVSPropertyOp26
 70
     1
102
RTVSPropertyOp27
 70
     1
102
RTVSPropertyOp28
 70
     1
102
RTVSPropertyOp29
 70
     1
102
RTVSPropertyOp30
 70
     1
102
RTVSPropertyOp31
 70
     1
102
RTVSPropertyOp32
 70
     1
  0
ENDSEC
  0
EOF
