  0
SECTION
  2
HEADER
  9
$ACADVER
  1
AC1015
  9
$ACADMAINTVER
 70
    20
  9
$DWGCODEPAGE
  3
ANSI_932
  9
$INSBASE
 10
0.0
 20
0.0
 30
0.0
  9
$EXTMIN
 10
323.178665
 20
111.937587
 30
0.0
  9
$EXTMAX
 10
1018.141110288616
 20
402.7404833732411
 30
0.0
  9
$LIMMIN
 10
323.17765
 20
111.936584
  9
$LIMMAX
 10
515.17965
 20
393.060723
  9
$ORTHOMODE
 70
     1
  9
$REGENMODE
 70
     1
  9
$FILLMODE
 70
     1
  9
$QTEXTMODE
 70
     0
  9
$MIRRTEXT
 70
     0
  9
$LTSCALE
 40
4.685369
  9
$ATTMODE
 70
     1
  9
$TEXTSIZE
 40
3.2
  9
$TRACEWID
 40
0.05
  9
$TEXTSTYLE
  7
高3.2
  9
$CLAYER
  8
0
  9
$CELTYPE
  6
CONTINUOUS
  9
$CECOLOR
 62
   256
  9
$CELTSCALE
 40
1.0
  9
$DISPSILH
 70
     0
  9
$DIMSCALE
 40
1.0
  9
$DIMASZ
 40
2.5
  9
$DIMEXO
 40
0.25
  9
$DIMDLI
 40
0.2
  9
$DIMRND
 40
0.0
  9
$DIMDLE
 40
0.0
  9
$DIMEXE
 40
1.25
  9
$DIMTP
 40
0.0
  9
$DIMTM
 40
0.0
  9
$DIMTXT
 40
3.0
  9
$DIMCEN
 40
0.0
  9
$DIMTSZ
 40
0.0
  9
$DIMTOL
 70
     0
  9
$DIMLIM
 70
     0
  9
$DIMTIH
 70
     0
  9
$DIMTOH
 70
     0
  9
$DIMSE1
 70
     0
  9
$DIMSE2
 70
     0
  9
$DIMTAD
 70
     3
  9
$DIMZIN
 70
     8
  9
$DIMBLK
  1
Open30
  9
$DIMASO
 70
     1
  9
$DIMSHO
 70
     1
  9
$DIMPOST
  1

  9
$DIMAPOST
  1

  9
$DIMALT
 70
     0
  9
$DIMALTD
 70
     3
  9
$DIMALTF
 40
0.03937007874016
  9
$DIMLFAC
 40
2.0
  9
$DIMTOFL
 70
     1
  9
$DIMTVP
 40
0.0
  9
$DIMTIX
 70
     0
  9
$DIMSOXD
 70
     0
  9
$DIMSAH
 70
     0
  9
$DIMBLK1
  1

  9
$DIMBLK2
  1

  9
$DIMSTYLE
  2
1／2
  9
$DIMCLRD
 70
     0
  9
$DIMCLRE
 70
     0
  9
$DIMCLRT
 70
     4
  9
$DIMTFAC
 40
1.0
  9
$DIMGAP
 40
0.625
  9
$DIMJUST
 70
     0
  9
$DIMSD1
 70
     0
  9
$DIMSD2
 70
     0
  9
$DIMTOLJ
 70
     0
  9
$DIMTZIN
 70
     8
  9
$DIMALTZ
 70
     0
  9
$DIMALTTZ
 70
     0
  9
$DIMUPT
 70
     1
  9
$DIMDEC
 70
     2
  9
$DIMTDEC
 70
     2
  9
$DIMALTU
 70
     2
  9
$DIMALTTD
 70
     3
  9
$DIMTXSTY
  7
STANDARD
  9
$DIMAUNIT
 70
     0
  9
$DIMADEC
 70
     1
  9
$DIMALTRND
 40
0.0
  9
$DIMAZIN
 70
     2
  9
$DIMDSEP
 70
    46
  9
$DIMATFIT
 70
     0
  9
$DIMFRAC
 70
     0
  9
$DIMLDRBLK
  1
Open30
  9
$DIMLUNIT
 70
     2
  9
$DIMLWD
 70
    -2
  9
$DIMLWE
 70
    -2
  9
$DIMTMOVE
 70
     0
  9
$LUNITS
 70
     2
  9
$LUPREC
 70
     4
  9
$SKETCHINC
 40
0.1
  9
$FILLETRAD
 40
0.0
  9
$AUNITS
 70
     0
  9
$AUPREC
 70
     0
  9
$MENU
  1
.
  9
$ELEVATION
 40
0.0
  9
$PELEVATION
 40
0.0
  9
$THICKNESS
 40
0.0
  9
$LIMCHECK
 70
     0
  9
$CHAMFERA
 40
0.0
  9
$CHAMFERB
 40
0.0
  9
$CHAMFERC
 40
0.0
  9
$CHAMFERD
 40
0.0
  9
$SKPOLY
 70
     0
  9
$TDCREATE
 40
2456071.778738889
  9
$TDUCREATE
 40
2456071.403738889
  9
$TDUPDATE
 40
2456856.876802222
  9
$TDUUPDATE
 40
2456856.501802223
  9
$TDINDWG
 40
0.0378706481
  9
$TDUSRTIMER
 40
0.0378706481
  9
$USRTIMER
 70
     1
  9
$ANGBASE
 50
0.0
  9
$ANGDIR
 70
     0
  9
$PDMODE
 70
     0
  9
$PDSIZE
 40
0.0
  9
$PLINEWID
 40
0.0
  9
$SPLFRAME
 70
     0
  9
$SPLINETYPE
 70
     6
  9
$SPLINESEGS
 70
     8
  9
$HANDSEED
  5
8C2
  9
$SURFTAB1
 70
     6
  9
$SURFTAB2
 70
     6
  9
$SURFTYPE
 70
     6
  9
$SURFU
 70
     6
  9
$SURFV
 70
     6
  9
$UCSBASE
  2

  9
$UCSNAME
  2

  9
$UCSORG
 10
0.0
 20
0.0
 30
0.0
  9
$UCSXDIR
 10
1.0
 20
0.0
 30
0.0
  9
$UCSYDIR
 10
0.0
 20
1.0
 30
0.0
  9
$UCSORTHOREF
  2

  9
$UCSORTHOVIEW
 70
     0
  9
$UCSORGTOP
 10
0.0
 20
0.0
 30
0.0
  9
$UCSORGBOTTOM
 10
0.0
 20
0.0
 30
0.0
  9
$UCSORGLEFT
 10
0.0
 20
0.0
 30
0.0
  9
$UCSORGRIGHT
 10
0.0
 20
0.0
 30
0.0
  9
$UCSORGFRONT
 10
0.0
 20
0.0
 30
0.0
  9
$UCSORGBACK
 10
0.0
 20
0.0
 30
0.0
  9
$PUCSBASE
  2

  9
$PUCSNAME
  2

  9
$PUCSORG
 10
0.0
 20
0.0
 30
0.0
  9
$PUCSXDIR
 10
1.0
 20
0.0
 30
0.0
  9
$PUCSYDIR
 10
0.0
 20
1.0
 30
0.0
  9
$PUCSORTHOREF
  2

  9
$PUCSORTHOVIEW
 70
     0
  9
$PUCSORGTOP
 10
0.0
 20
0.0
 30
0.0
  9
$PUCSORGBOTTOM
 10
0.0
 20
0.0
 30
0.0
  9
$PUCSORGLEFT
 10
0.0
 20
0.0
 30
0.0
  9
$PUCSORGRIGHT
 10
0.0
 20
0.0
 30
0.0
  9
$PUCSORGFRONT
 10
0.0
 20
0.0
 30
0.0
  9
$PUCSORGBACK
 10
0.0
 20
0.0
 30
0.0
  9
$USERI1
 70
     0
  9
$USERI2
 70
     0
  9
$USERI3
 70
     0
  9
$USERI4
 70
     0
  9
$USERI5
 70
     0
  9
$USERR1
 40
0.0
  9
$USERR2
 40
0.0
  9
$USERR3
 40
0.0
  9
$USERR4
 40
0.0
  9
$USERR5
 40
0.0
  9
$WORLDVIEW
 70
     1
  9
$SHADEDGE
 70
     3
  9
$SHADEDIF
 70
    70
  9
$TILEMODE
 70
     1
  9
$MAXACTVP
 70
    64
  9
$PINSBASE
 10
0.0
 20
0.0
 30
0.0
  9
$PLIMCHECK
 70
     0
  9
$PEXTMIN
 10
1.000000000000000E+20
 20
1.000000000000000E+20
 30
1.000000000000000E+20
  9
$PEXTMAX
 10
-1.000000000000000E+20
 20
-1.000000000000000E+20
 30
-1.000000000000000E+20
  9
$PLIMMIN
 10
0.0
 20
0.0
  9
$PLIMMAX
 10
12.0
 20
9.0
  9
$UNITMODE
 70
     0
  9
$VISRETAIN
 70
     1
  9
$PLINEGEN
 70
     0
  9
$PSLTSCALE
 70
     1
  9
$TREEDEPTH
 70
  3020
  9
$CMLSTYLE
  2
Standard
  9
$CMLJUST
 70
     0
  9
$CMLSCALE
 40
1.0
  9
$PROXYGRAPHICS
 70
     1
  9
$MEASUREMENT
 70
     0
  9
$CELWEIGHT
370
    -1
  9
$ENDCAPS
280
     0
  9
$JOINSTYLE
280
     0
  9
$LWDISPLAY
290
     0
  9
$INSUNITS
 70
     0
  9
$HYPERLINKBASE
  1

  9
$STYLESHEET
  1
N-PLOT.CTB
  9
$XEDIT
290
     1
  9
$CEPSNTYPE
380
     0
  9
$PSTYLEMODE
290
     1
  9
$FINGERPRINTGUID
  2
{50823EBA-F64A-493E-B6D1-8EA52EBC8134}
  9
$VERSIONGUID
  2
{F3CF87B8-B334-48A7-818A-B8F4944C6BBA}
  9
$EXTNAMES
290
     1
  9
$PSVPSCALE
 40
0.0
  9
$OLESTARTUP
290
     0
  0
ENDSEC
  0
SECTION
  2
CLASSES
  0
CLASS
  1
ACDBDICTIONARYWDFLT
  2
AcDbDictionaryWithDefault
  3
ObjectDBX Classes
 90
        0
280
     0
281
     0
  0
CLASS
  1
MATERIAL
  2
AcDbMaterial
  3
ObjectDBX Classes
 90
     1153
280
     0
281
     0
  0
CLASS
  1
VISUALSTYLE
  2
AcDbVisualStyle
  3
ObjectDBX Classes
 90
     4095
280
     0
281
     0
  0
CLASS
  1
SCALE
  2
AcDbScale
  3
ObjectDBX Classes
 90
     1153
280
     0
281
     0
  0
CLASS
  1
TABLESTYLE
  2
AcDbTableStyle
  3
ObjectDBX Classes
 90
     4095
280
     0
281
     0
  0
CLASS
  1
MLEADERSTYLE
  2
AcDbMLeaderStyle
  3
ACDB_MLEADERSTYLE_CLASS
 90
     4095
280
     0
281
     0
  0
CLASS
  1
SORTENTSTABLE
  2
AcDbSortentsTable
  3
ObjectDBX Classes
 90
        0
280
     0
281
     0
  0
CLASS
  1
DICTIONARYVAR
  2
AcDbDictionaryVar
  3
ObjectDBX Classes
 90
        0
280
     0
281
     0
  0
CLASS
  1
CELLSTYLEMAP
  2
AcDbCellStyleMap
  3
ObjectDBX Classes
 90
     1152
280
     0
281
     0
  0
CLASS
  1
ACDBPLACEHOLDER
  2
AcDbPlaceHolder
  3
ObjectDBX Classes
 90
        0
280
     0
281
     0
  0
CLASS
  1
LAYOUT
  2
AcDbLayout
  3
ObjectDBX Classes
 90
        0
280
     0
281
     0
  0
ENDSEC
  0
SECTION
  2
TABLES
  0
TABLE
  2
VPORT
  5
8
330
0
100
AcDbSymbolTable
 70
     1
  0
VPORT
  5
8B
330
8
100
AcDbSymbolTableRecord
100
AcDbViewportTableRecord
  2
*Active
 70
     0
 10
0.0
 20
0.0
 11
1.0
 21
1.0
 12
440.7615731410483
 22
227.8436968503686
 13
0.0
 23
0.0
 14
1.0
 24
1.0
 15
0.0
 25
0.0
 16
0.0
 26
0.0
 36
1.0
 17
0.0
 27
0.0
 37
0.0
 40
623.5474018064226
 41
1.925141242937853
 42
50.0
 43
0.0
 44
0.0
 50
0.0
 51
0.0
 71
     0
 72
   100
 73
     1
 74
     1
 75
     0
 76
     0
 77
     0
 78
     0
281
     0
 65
     1
110
0.0
120
0.0
130
0.0
111
1.0
121
0.0
131
0.0
112
0.0
122
1.0
132
0.0
 79
     0
146
0.0
  0
ENDTAB
  0
TABLE
  2
LTYPE
  5
5
330
0
100
AcDbSymbolTable
 70
     2
  0
LTYPE
  5
5A
330
5
100
AcDbSymbolTableRecord
100
AcDbLinetypeTableRecord
  2
ByBlock
 70
     0
  3

 72
    65
 73
     0
 40
0.0
  0
LTYPE
  5
5B
330
5
100
AcDbSymbolTableRecord
100
AcDbLinetypeTableRecord
  2
ByLayer
 70
     0
  3

 72
    65
 73
     0
 40
0.0
  0
LTYPE
  5
5C
330
5
100
AcDbSymbolTableRecord
100
AcDbLinetypeTableRecord
  2
CONTINUOUS
 70
     0
  3
Solid-line
 72
    65
 73
     0
 40
0.0
  0
LTYPE
  5
72
330
5
100
AcDbSymbolTableRecord
100
AcDbLinetypeTableRecord
  2
CENTER
 70
     0
  3
CENTER
 72
    65
 73
     4
 40
2.0
 49
1.25
 74
     0
 49
-0.25
 74
     0
 49
0.25
 74
     0
 49
-0.25
 74
     0
  0
ENDTAB
  0
TABLE
  2
LAYER
  5
2
102
{ACAD_XDICTIONARY
360
31C
102
}
330
0
100
AcDbSymbolTable
 70
     3
  0
LAYER
  5
54
102
{ACAD_XDICTIONARY
360
530
102
}
330
2
100
AcDbSymbolTableRecord
100
AcDbLayerTableRecord
  2
0
 70
     0
 62
     7
  6
CONTINUOUS
370
    -3
390
F
  0
LAYER
  5
307
330
2
100
AcDbSymbolTableRecord
100
AcDbLayerTableRecord
  2
Defpoints
 70
     0
 62
     7
  6
CONTINUOUS
290
     0
370
    -3
390
F
  0
ENDTAB
  0
TABLE
  2
STYLE
  5
3
330
0
100
AcDbSymbolTable
 70
     6
  0
STYLE
  5
55
330
3
100
AcDbSymbolTableRecord
100
AcDbTextStyleTableRecord
  2
STANDARD
 70
     0
 40
0.0
 41
1.0
 50
0.0
 71
     0
 42
0.2
  3
TXT
  4
BIGFONT
  0
STYLE
  5
308
330
3
100
AcDbSymbolTableRecord
100
AcDbTextStyleTableRecord
  2
高3.2
 70
     0
 40
3.2
 41
1.0
 50
0.0
 71
     0
 42
3.2
  3
txt.shx
  4
bigfont.shx
  0
STYLE
  5
309
330
3
100
AcDbSymbolTableRecord
100
AcDbTextStyleTableRecord
  2
高6.3
 70
     0
 40
6.299999999999998
 41
1.0
 50
0.0
 71
     0
 42
6.299999999999998
  3
txt.shx
  4
bigfont.shx
  0
STYLE
  5
30A
330
3
100
AcDbSymbolTableRecord
100
AcDbTextStyleTableRecord
  2
高2.5
 70
     0
 40
2.5
 41
1.0
 50
0.0
 71
     0
 42
0.2
  3
txt.shx
  4
bigfont.shx
  0
STYLE
  5
30B
330
3
100
AcDbSymbolTableRecord
100
AcDbTextStyleTableRecord
  2
高4.5
 70
     0
 40
4.5
 41
1.0
 50
0.0
 71
     0
 42
6.299999999999998
  3
txt.shx
  4
bigfont.shx
  0
STYLE
  5
30C
330
3
100
AcDbSymbolTableRecord
100
AcDbTextStyleTableRecord
  2
高2
 70
     0
 40
2.0
 41
1.0
 50
0.0
 71
     0
 42
2.0
  3
txt.shx
  4
bigfont.shx
  0
ENDTAB
  0
TABLE
  2
VIEW
  5
6
330
0
100
AcDbSymbolTable
 70
     0
  0
ENDTAB
  0
TABLE
  2
UCS
  5
7
330
0
100
AcDbSymbolTable
 70
     0
  0
ENDTAB
  0
TABLE
  2
APPID
  5
9
330
0
100
AcDbSymbolTable
 70
    11
  0
APPID
  5
56
330
9
100
AcDbSymbolTableRecord
100
AcDbRegAppTableRecord
  2
ACAD
 70
     0
  0
APPID
  5
5D
330
9
100
AcDbSymbolTableRecord
100
AcDbRegAppTableRecord
  2
AcadAnnotative
 70
     0
  0
APPID
  5
317
330
9
100
AcDbSymbolTableRecord
100
AcDbRegAppTableRecord
  2
ACAD_DSTYLE_DIMJOGGED_JOGANGLE_SYMBOL
 70
     0
  0
APPID
  5
318
330
9
100
AcDbSymbolTableRecord
100
AcDbRegAppTableRecord
  2
ACAD_DSTYLE_DIMJAG
 70
     0
  0
APPID
  5
319
330
9
100
AcDbSymbolTableRecord
100
AcDbRegAppTableRecord
  2
ACAD_DSTYLE_DIMBREAK
 70
     0
  0
APPID
  5
31A
330
9
100
AcDbSymbolTableRecord
100
AcDbRegAppTableRecord
  2
ACAD_DSTYLE_DIMTALN
 70
     0
  0
APPID
  5
516
330
9
100
AcDbSymbolTableRecord
100
AcDbRegAppTableRecord
  2
ACAD_EXEMPT_FROM_CAD_STANDARDS
 70
     0
  0
APPID
  5
581
330
9
100
AcDbSymbolTableRecord
100
AcDbRegAppTableRecord
  2
ACAD_PSEXT
 70
     0
  0
APPID
  5
5C6
330
9
100
AcDbSymbolTableRecord
100
AcDbRegAppTableRecord
  2
ACAD_MLEADERVER
 70
     0
  0
APPID
  5
5CB
330
9
100
AcDbSymbolTableRecord
100
AcDbRegAppTableRecord
  2
ACAD_DSTYLE_DIMARC_LENGTH_SYMBOL
 70
     0
  0
APPID
  5
5CC
330
9
100
AcDbSymbolTableRecord
100
AcDbRegAppTableRecord
  2
ACAD_DSTYLE_DIMEXT_LENGTH
 70
     0
  0
ENDTAB
  0
TABLE
  2
DIMSTYLE
  5
A
330
0
100
AcDbSymbolTable
 70
    11
100
AcDbDimStyleTable
 71
     1
340
311
  0
DIMSTYLE
105
57
330
A
100
AcDbSymbolTableRecord
100
AcDbDimStyleTableRecord
  2
Standard
 70
     0
340
55
  0
DIMSTYLE
105
311
330
A
100
AcDbSymbolTableRecord
100
AcDbDimStyleTableRecord
  2
1／2
 70
     0
 41
2.5
 42
0.25
 43
0.2
 44
1.25
 73
     0
 74
     0
 77
     3
 78
     8
 79
     2
140
3.0
141
0.0
143
0.03937007874016
144
2.0
147
0.625
171
     3
172
     1
178
     4
179
     1
271
     2
272
     2
274
     3
283
     0
284
     8
288
     1
289
     0
340
55
341
277
342
277
1001
ACAD_DSTYLE_DIMARC_LENGTH_SYMBOL
1070
   379
1070
     2
1001
ACAD_DSTYLE_DIMEXT_LENGTH
1070
   378
1040
1.25
1001
ACAD_DSTYLE_DIMJOGGED_JOGANGLE_SYMBOL
1070
   384
1040
1.570796326794896
  0
DIMSTYLE
105
694
102
{ACAD_REACTORS
330
6A0
102
}
330
A
100
AcDbSymbolTableRecord
100
AcDbDimStyleTableRecord
  2
1：1
 70
     0
 41
2.5
 42
0.25
 43
0.2
 44
1.25
 73
     0
 74
     0
 77
     3
 78
     8
 79
     2
140
3.0
141
0.0
143
0.03937007874016
147
0.625
171
     3
172
     1
178
     4
179
     1
271
     2
272
     2
274
     3
283
     0
284
     8
288
     1
289
     0
340
55
341
277
342
277
1001
ACAD_DSTYLE_DIMARC_LENGTH_SYMBOL
1070
   379
1070
     2
1001
ACAD_DSTYLE_DIMEXT_LENGTH
1070
   378
1040
1.25
1001
ACAD_DSTYLE_DIMJOGGED_JOGANGLE_SYMBOL
1070
   384
1040
1.570796326794896
  0
DIMSTYLE
105
695
102
{ACAD_REACTORS
330
6A5
102
}
330
A
100
AcDbSymbolTableRecord
100
AcDbDimStyleTableRecord
  2
2：1
 70
     0
 41
2.5
 42
0.25
 43
0.2
 44
1.25
 73
     0
 74
     0
 77
     3
 78
     8
 79
     2
140
3.0
141
0.0
143
0.03937007874016
144
0.5
147
0.625
171
     3
172
     1
178
     4
179
     1
271
     2
272
     2
274
     3
283
     0
284
     8
288
     1
289
     0
340
55
341
277
342
277
1001
ACAD_DSTYLE_DIMARC_LENGTH_SYMBOL
1070
   379
1070
     2
1001
ACAD_DSTYLE_DIMEXT_LENGTH
1070
   378
1040
1.25
1001
ACAD_DSTYLE_DIMJOGGED_JOGANGLE_SYMBOL
1070
   384
1040
1.570796326794896
  0
DIMSTYLE
105
696
102
{ACAD_REACTORS
330
6A6
102
}
330
A
100
AcDbSymbolTableRecord
100
AcDbDimStyleTableRecord
  2
5：1
 70
     0
 41
2.5
 42
0.25
 43
0.2
 44
1.25
 73
     0
 74
     0
 77
     3
 78
     8
 79
     2
140
3.0
141
0.0
143
0.03937007874016
144
0.2
147
0.625
171
     3
172
     1
178
     4
179
     1
271
     2
272
     2
274
     3
283
     0
284
     8
288
     1
289
     0
340
55
341
277
342
277
1001
ACAD_DSTYLE_DIMARC_LENGTH_SYMBOL
1070
   379
1070
     2
1001
ACAD_DSTYLE_DIMEXT_LENGTH
1070
   378
1040
1.25
1001
ACAD_DSTYLE_DIMJOGGED_JOGANGLE_SYMBOL
1070
   384
1040
1.570796326794896
  0
DIMSTYLE
105
697
102
{ACAD_REACTORS
330
6A4
102
}
330
A
100
AcDbSymbolTableRecord
100
AcDbDimStyleTableRecord
  2
10：1
 70
     0
 41
2.5
 42
0.25
 43
0.2
 44
1.25
 73
     0
 74
     0
 77
     3
 78
     8
 79
     2
140
3.0
141
0.0
143
0.03937007874016
144
0.1
147
0.625
171
     3
172
     1
178
     4
179
     1
271
     2
272
     2
274
     3
283
     0
284
     8
288
     1
289
     0
340
55
341
277
342
277
1001
ACAD_DSTYLE_DIMARC_LENGTH_SYMBOL
1070
   379
1070
     2
1001
ACAD_DSTYLE_DIMEXT_LENGTH
1070
   378
1040
1.25
1001
ACAD_DSTYLE_DIMJOGGED_JOGANGLE_SYMBOL
1070
   384
1040
1.570796326794896
  0
DIMSTYLE
105
698
102
{ACAD_REACTORS
330
6A1
102
}
330
A
100
AcDbSymbolTableRecord
100
AcDbDimStyleTableRecord
  2
1／5
 70
     0
 41
2.5
 42
0.25
 43
0.2
 44
1.25
 73
     0
 74
     0
 77
     3
 78
     8
 79
     2
140
3.0
141
0.0
143
0.03937007874016
144
5.0
147
0.625
171
     3
172
     1
178
     4
179
     1
271
     2
272
     2
274
     3
283
     0
284
     8
288
     1
289
     0
340
55
341
277
342
277
1001
ACAD_DSTYLE_DIMARC_LENGTH_SYMBOL
1070
   379
1070
     2
1001
ACAD_DSTYLE_DIMEXT_LENGTH
1070
   378
1040
1.25
1001
ACAD_DSTYLE_DIMJOGGED_JOGANGLE_SYMBOL
1070
   384
1040
1.570796326794896
  0
DIMSTYLE
105
699
102
{ACAD_REACTORS
330
6A3
102
}
330
A
100
AcDbSymbolTableRecord
100
AcDbDimStyleTableRecord
  2
1／10
 70
     0
 41
2.5
 42
0.25
 43
0.2
 44
1.25
 73
     0
 74
     0
 77
     3
 78
     8
 79
     2
140
3.0
141
0.0
143
0.03937007874016
144
10.0
147
0.625
171
     3
172
     1
178
     4
179
     1
271
     2
272
     2
274
     3
283
     0
284
     8
288
     1
289
     0
340
55
341
277
342
277
1001
ACAD_DSTYLE_DIMARC_LENGTH_SYMBOL
1070
   379
1070
     2
1001
ACAD_DSTYLE_DIMEXT_LENGTH
1070
   378
1040
1.25
1001
ACAD_DSTYLE_DIMJOGGED_JOGANGLE_SYMBOL
1070
   384
1040
1.570796326794896
  0
DIMSTYLE
105
69A
102
{ACAD_REACTORS
330
6A7
102
}
330
A
100
AcDbSymbolTableRecord
100
AcDbDimStyleTableRecord
  2
1／4
 70
     0
 41
2.5
 42
0.25
 43
0.2
 44
1.25
 73
     0
 74
     0
 77
     3
 78
     8
 79
     2
140
3.0
141
0.0
143
0.03937007874016
144
4.0
147
0.625
171
     3
172
     1
178
     4
179
     1
271
     2
272
     2
274
     3
283
     0
284
     8
288
     1
289
     0
340
55
341
277
342
277
1001
ACAD_DSTYLE_DIMARC_LENGTH_SYMBOL
1070
   379
1070
     2
1001
ACAD_DSTYLE_DIMEXT_LENGTH
1070
   378
1040
1.25
1001
ACAD_DSTYLE_DIMJOGGED_JOGANGLE_SYMBOL
1070
   384
1040
1.570796326794896
  0
DIMSTYLE
105
69B
102
{ACAD_REACTORS
330
6A8
102
}
330
A
100
AcDbSymbolTableRecord
100
AcDbDimStyleTableRecord
  2
1／3
 70
     0
 41
2.5
 42
0.25
 43
0.2
 44
1.25
 73
     0
 74
     0
 77
     3
 78
     8
 79
     2
140
3.0
141
0.0
143
0.03937007874016
144
3.0
147
0.625
171
     3
172
     1
178
     4
179
     1
271
     2
272
     2
274
     3
283
     0
284
     8
288
     1
289
     0
340
55
341
277
342
277
1001
ACAD_DSTYLE_DIMARC_LENGTH_SYMBOL
1070
   379
1070
     2
1001
ACAD_DSTYLE_DIMEXT_LENGTH
1070
   378
1040
1.25
1001
ACAD_DSTYLE_DIMJOGGED_JOGANGLE_SYMBOL
1070
   384
1040
1.570796326794896
  0
DIMSTYLE
105
69C
102
{ACAD_REACTORS
330
6A9
102
}
330
A
100
AcDbSymbolTableRecord
100
AcDbDimStyleTableRecord
  2
FREE
 70
     0
 41
2.5
 42
0.25
 43
0.2
 44
1.25
 73
     0
 74
     0
 77
     3
 78
     8
 79
     2
140
3.0
141
0.0
143
0.03937007874016
147
0.625
171
     3
172
     1
178
     4
179
     1
271
     2
272
     2
274
     3
283
     0
284
     8
288
     1
289
     0
340
55
341
277
342
277
1001
ACAD_DSTYLE_DIMBREAK
1070
   391
1040
3.75
1001
ACAD_DSTYLE_DIMJAG
1070
   388
1040
1.5
1001
ACAD_DSTYLE_DIMTALN
1070
   392
1070
     0
1001
ACAD_DSTYLE_DIMARC_LENGTH_SYMBOL
1070
   379
1070
     2
1001
ACAD_DSTYLE_DIMEXT_LENGTH
1070
   378
1040
1.25
1001
ACAD_DSTYLE_DIMJOGGED_JOGANGLE_SYMBOL
1070
   384
1040
1.570796326794896
  0
ENDTAB
  0
TABLE
  2
BLOCK_RECORD
  5
1
330
0
100
AcDbSymbolTable
 70
    25
  0
BLOCK_RECORD
  5
6B
102
{ACAD_XDICTIONARY
360
85B
102
}
330
1
100
AcDbSymbolTableRecord
100
AcDbBlockTableRecord
  2
*Model_Space
340
6E
  0
BLOCK_RECORD
  5
67
330
1
100
AcDbSymbolTableRecord
100
AcDbBlockTableRecord
  2
*Paper_Space
340
6A
  0
BLOCK_RECORD
  5
277
330
1
100
AcDbSymbolTableRecord
100
AcDbBlockTableRecord
  2
_Open30
340
0
102
{BLKREFS
331
5F2
331
5F3
331
5FB
331
5FC
331
604
331
605
331
776
331
777
331
781
331
782
331
78C
331
78D
331
797
331
798
331
7A2
331
7A3
331
7AD
331
7AE
331
7B8
331
7B9
331
7C3
331
7C4
331
7CE
331
7CF
331
7D7
331
7D8
102
}
  0
BLOCK_RECORD
  5
4F2
330
1
100
AcDbSymbolTableRecord
100
AcDbBlockTableRecord
  2
*D1
340
0
  0
BLOCK_RECORD
  5
4FE
330
1
100
AcDbSymbolTableRecord
100
AcDbBlockTableRecord
  2
*D2
340
0
  0
BLOCK_RECORD
  5
50A
330
1
100
AcDbSymbolTableRecord
100
AcDbBlockTableRecord
  2
*D3
340
0
  0
BLOCK_RECORD
  5
6E7
330
1
100
AcDbSymbolTableRecord
100
AcDbBlockTableRecord
  2
*D15
340
0
  0
BLOCK_RECORD
  5
6F5
330
1
100
AcDbSymbolTableRecord
100
AcDbBlockTableRecord
  2
*D16
340
0
  0
BLOCK_RECORD
  5
703
330
1
100
AcDbSymbolTableRecord
100
AcDbBlockTableRecord
  2
*D17
340
0
  0
BLOCK_RECORD
  5
711
330
1
100
AcDbSymbolTableRecord
100
AcDbBlockTableRecord
  2
*D18
340
0
  0
BLOCK_RECORD
  5
71F
330
1
100
AcDbSymbolTableRecord
100
AcDbBlockTableRecord
  2
*D19
340
0
  0
BLOCK_RECORD
  5
72D
330
1
100
AcDbSymbolTableRecord
100
AcDbBlockTableRecord
  2
*D20
340
0
  0
BLOCK_RECORD
  5
73B
330
1
100
AcDbSymbolTableRecord
100
AcDbBlockTableRecord
  2
*D21
340
0
  0
BLOCK_RECORD
  5
749
330
1
100
AcDbSymbolTableRecord
100
AcDbBlockTableRecord
  2
*D22
340
0
  0
BLOCK_RECORD
  5
757
330
1
100
AcDbSymbolTableRecord
100
AcDbBlockTableRecord
  2
*D23
340
0
  0
BLOCK_RECORD
  5
765
330
1
100
AcDbSymbolTableRecord
100
AcDbBlockTableRecord
  2
*D24
340
0
  0
ENDTAB
  0
ENDSEC
  0
SECTION
  2
BLOCKS
  0
BLOCK
  5
6C
330
6B
100
AcDbEntity
  8
0
100
AcDbBlockBegin
  2
*Model_Space
 70
     0
 10
0.0
 20
0.0
 30
0.0
  3
*Model_Space
  1

  0
ENDBLK
  5
6D
330
6B
100
AcDbEntity
  8
0
100
AcDbBlockEnd
  0
BLOCK
  5
68
330
67
100
AcDbEntity
 67
     1
  8
0
100
AcDbBlockBegin
  2
*Paper_Space
 70
     0
 10
0.0
 20
0.0
 30
0.0
  3
*Paper_Space
  1

  0
ENDBLK
  5
69
330
67
100
AcDbEntity
 67
     1
  8
0
100
AcDbBlockEnd
  0
BLOCK
  5
278
330
277
100
AcDbEntity
  8
0
100
AcDbBlockBegin
  2
_Open30
 70
     0
 10
0.0
 20
0.0
 30
0.0
  3
_Open30
  1

  0
LINE
  5
279
330
277
100
AcDbEntity
  8
0
  6
ByBlock
 62
     0
370
    -2
100
AcDbLine
 10
-1.0
 20
0.267949
 30
0.0
 11
0.0
 21
0.0
 31
0.0
  0
LINE
  5
27A
330
277
100
AcDbEntity
  8
0
  6
ByBlock
 62
     0
370
    -2
100
AcDbLine
 10
0.0
 20
0.0
 30
0.0
 11
-1.0
 21
-0.267949
 31
0.0
  0
LINE
  5
27B
330
277
100
AcDbEntity
  8
0
  6
ByBlock
 62
     0
370
    -2
100
AcDbLine
 10
0.0
 20
0.0
 30
0.0
 11
-1.0
 21
0.0
 31
0.0
  0
ENDBLK
  5
27C
330
277
100
AcDbEntity
  8
0
100
AcDbBlockEnd
  0
BLOCK
  5
4F3
330
4F2
100
AcDbEntity
  8
0
100
AcDbBlockBegin
  2
*D1
 70
     1
 10
0.0
 20
0.0
 30
0.0
  3
*D1
  1

  0
LINE
  5
5F8
330
4F2
100
AcDbEntity
  8
0
 62
     0
370
    -2
100
AcDbLine
 10
363.109295
 20
283.692132
 30
0.0
 11
363.109295
 21
365.908986
 31
0.0
  0
LINE
  5
5F9
330
4F2
100
AcDbEntity
  8
0
 62
     0
370
    -2
100
AcDbLine
 10
453.109295
 20
283.692132
 30
0.0
 11
453.109295
 21
365.908986
 31
0.0
  0
LINE
  5
5FA
330
4F2
100
AcDbEntity
  8
0
 62
     0
370
    -2
100
AcDbLine
 10
365.6092950000001
 20
364.658986
 30
0.0
 11
450.609295
 21
364.658986
 31
0.0
  0
INSERT
  5
5FB
330
4F2
100
AcDbEntity
  8
0
 62
     0
370
    -2
100
AcDbBlockReference
  2
_Open30
 10
363.109295
 20
364.658986
 30
0.0
 41
2.5
 42
2.5
 43
2.5
 50
180.0
  0
INSERT
  5
5FC
330
4F2
100
AcDbEntity
  8
0
 62
     0
370
    -2
100
AcDbBlockReference
  2
_Open30
 10
453.109295
 20
364.658986
 30
0.0
 41
2.5
 42
2.5
 43
2.5
  0
MTEXT
  5
5FD
330
4F2
100
AcDbEntity
  8
0
 62
     4
100
AcDbMText
 10
408.109295
 20
366.783986
 30
0.0
 40
3.0
 41
0.0
 71
     5
 72
     1
  1
%%C180
 73
     1
 44
1.0
1001
ACAD
1000
MTEXTBEGIN
1070
    73
1070
     1
1070
    44
1040
1.0
1070
    74
1070
     0
1000
MTEXTEND
  0
POINT
  5
5FE
330
4F2
100
AcDbEntity
  8
Defpoints
 62
     0
100
AcDbPoint
 10
363.109295
 20
283.442132
 30
0.0
  0
POINT
  5
5FF
330
4F2
100
AcDbEntity
  8
Defpoints
 62
     0
100
AcDbPoint
 10
453.109295
 20
283.442132
 30
0.0
  0
POINT
  5
600
330
4F2
100
AcDbEntity
  8
Defpoints
 62
     0
100
AcDbPoint
 10
453.109295
 20
364.658986
 30
0.0
  0
ENDBLK
  5
4F4
330
4F2
100
AcDbEntity
  8
0
100
AcDbBlockEnd
  0
BLOCK
  5
4FF
330
4FE
100
AcDbEntity
  8
0
100
AcDbBlockBegin
  2
*D2
 70
     1
 10
0.0
 20
0.0
 30
0.0
  3
*D2
  1

  0
LINE
  5
601
330
4FE
100
AcDbEntity
  8
0
 62
     0
370
    -2
100
AcDbLine
 10
407.8592949999999
 20
160.942132
 30
0.0
 11
348.84515
 21
160.942132
 31
0.0
  0
LINE
  5
602
330
4FE
100
AcDbEntity
  8
0
 62
     0
370
    -2
100
AcDbLine
 10
407.8592949999999
 20
355.942132
 30
0.0
 11
348.84515
 21
355.942132
 31
0.0
  0
LINE
  5
603
330
4FE
100
AcDbEntity
  8
0
 62
     0
370
    -2
100
AcDbLine
 10
350.09515
 20
163.442132
 30
0.0
 11
350.09515
 21
353.442132
 31
0.0
  0
INSERT
  5
604
330
4FE
100
AcDbEntity
  8
0
 62
     0
370
    -2
100
AcDbBlockReference
  2
_Open30
 10
350.09515
 20
160.942132
 30
0.0
 41
2.5
 42
2.5
 43
2.5
 50
270.0
  0
INSERT
  5
605
330
4FE
100
AcDbEntity
  8
0
 62
     0
370
    -2
100
AcDbBlockReference
  2
_Open30
 10
350.09515
 20
355.942132
 30
0.0
 41
2.5
 42
2.5
 43
2.5
 50
90.0
  0
MTEXT
  5
606
330
4FE
100
AcDbEntity
  8
0
 62
     4
100
AcDbMText
 10
347.97015
 20
258.4421320000001
 30
0.0
 40
3.0
 41
0.0
 71
     5
 72
     1
  1
390
 11
0.0000000000000001
 21
1.0
 31
0.0
 73
     1
 44
1.0
1001
ACAD
1000
MTEXTBEGIN
1070
    73
1070
     1
1070
    44
1040
1.0
1070
    74
1070
     0
1000
MTEXTEND
  0
POINT
  5
607
330
4FE
100
AcDbEntity
  8
Defpoints
 62
     0
100
AcDbPoint
 10
408.109295
 20
160.942132
 30
0.0
  0
POINT
  5
608
330
4FE
100
AcDbEntity
  8
Defpoints
 62
     0
100
AcDbPoint
 10
408.109295
 20
355.942132
 30
0.0
  0
POINT
  5
609
330
4FE
100
AcDbEntity
  8
Defpoints
 62
     0
100
AcDbPoint
 10
350.09515
 20
355.942132
 30
0.0
  0
ENDBLK
  5
500
330
4FE
100
AcDbEntity
  8
0
100
AcDbBlockEnd
  0
BLOCK
  5
50B
330
50A
100
AcDbEntity
  8
0
100
AcDbBlockBegin
  2
*D3
 70
     1
 10
0.0
 20
0.0
 30
0.0
  3
*D3
  1

  0
LINE
  5
5EF
330
50A
100
AcDbEntity
  8
0
 62
     0
370
    -2
100
AcDbLine
 10
398.359295
 20
168.106346
 30
0.0
 11
398.359295
 21
152.471585
 31
0.0
  0
LINE
  5
5F0
330
50A
100
AcDbEntity
  8
0
 62
     0
370
    -2
100
AcDbLine
 10
417.859295
 20
169.606346
 30
0.0
 11
417.859295
 21
152.471585
 31
0.0
  0
LINE
  5
5F1
330
50A
100
AcDbEntity
  8
0
 62
     0
370
    -2
100
AcDbLine
 10
400.859295
 20
153.721585
 30
0.0
 11
415.359295
 21
153.721585
 31
0.0
  0
INSERT
  5
5F2
330
50A
100
AcDbEntity
  8
0
 62
     0
370
    -2
100
AcDbBlockReference
  2
_Open30
 10
398.359295
 20
153.721585
 30
0.0
 41
2.5
 42
2.5
 43
2.5
 50
180.0
  0
INSERT
  5
5F3
330
50A
100
AcDbEntity
  8
0
 62
     0
370
    -2
100
AcDbBlockReference
  2
_Open30
 10
417.859295
 20
153.721585
 30
0.0
 41
2.5
 42
2.5
 43
2.5
  0
MTEXT
  5
5F4
330
50A
100
AcDbEntity
  8
0
 62
     4
100
AcDbMText
 10
408.109295
 20
155.846585
 30
0.0
 40
3.0
 41
0.0
 71
     5
 72
     1
  1
E39
 73
     1
 44
1.0
1001
ACAD
1000
MTEXTBEGIN
1070
    73
1070
     1
1070
    44
1040
1.0
1070
    74
1070
     0
1000
MTEXTEND
  0
POINT
  5
5F5
330
50A
100
AcDbEntity
  8
Defpoints
 62
     0
100
AcDbPoint
 10
398.359295
 20
168.356346
 30
0.0
  0
POINT
  5
5F6
330
50A
100
AcDbEntity
  8
Defpoints
 62
     0
100
AcDbPoint
 10
417.859295
 20
169.856346
 30
0.0
  0
POINT
  5
5F7
330
50A
100
AcDbEntity
  8
Defpoints
 62
     0
100
AcDbPoint
 10
417.859295
 20
153.721585
 30
0.0
  0
ENDBLK
  5
50C
330
50A
100
AcDbEntity
  8
0
100
AcDbBlockEnd
  0
BLOCK
  5
6E8
330
6E7
100
AcDbEntity
  8
0
100
AcDbBlockBegin
  2
*D15
 70
     1
 10
0.0
 20
0.0
 30
0.0
  3
*D15
  1

  0
LINE
  5
771
330
6E7
100
AcDbEntity
  8
0
 62
     0
370
    -2
100
AcDbLine
 10
985.0199676943034
 20
341.6299005387898
 30
0.0
 11
985.0199676943034
 21
338.720269116781
 31
0.0
  0
LINE
  5
772
330
6E7
100
AcDbEntity
  8
0
 62
     0
370
    -2
100
AcDbLine
 10
982.5627806401831
 20
341.6299005387898
 30
0.0
 11
982.5627806401831
 21
338.720269116781
 31
0.0
  0
LINE
  5
773
330
6E7
100
AcDbEntity
  8
0
 62
     0
370
    -2
100
AcDbLine
 10
987.5199676943035
 20
339.970269116781
 30
0.0
 11
990.0199676943033
 21
339.970269116781
 31
0.0
  0
LINE
  5
774
330
6E7
100
AcDbEntity
  8
0
 62
     0
370
    -2
100
AcDbLine
 10
980.0627806401832
 20
339.970269116781
 30
0.0
 11
967.3127806401831
 21
339.970269116781
 31
0.0
  0
LINE
  5
775
330
6E7
100
AcDbEntity
  8
0
 62
     0
370
    -2
100
AcDbLine
 10
985.0199676943034
 20
339.970269116781
 30
0.0
 11
982.5627806401831
 21
339.970269116781
 31
0.0
  0
INSERT
  5
776
330
6E7
100
AcDbEntity
  8
0
 62
     0
370
    -2
100
AcDbBlockReference
  2
_Open30
 10
985.0199676943034
 20
339.970269116781
 30
0.0
 41
2.5
 42
2.5
 43
2.5
 50
180.0
  0
INSERT
  5
777
330
6E7
100
AcDbEntity
  8
0
 62
     0
370
    -2
100
AcDbBlockReference
  2
_Open30
 10
982.5627806401831
 20
339.970269116781
 30
0.0
 41
2.5
 42
2.5
 43
2.5
  0
MTEXT
  5
778
330
6E7
100
AcDbEntity
  8
0
 62
     4
100
AcDbMText
 10
972.4377806401831
 20
342.095269116781
 30
0.0
 40
3.0
 41
0.0
 71
     5
 72
     1
  1
2.46
 73
     1
 44
1.0
1001
ACAD
1000
MTEXTBEGIN
1070
    73
1070
     1
1070
    44
1040
1.0
1070
    74
1070
     0
1000
MTEXTEND
  0
POINT
  5
779
330
6E7
100
AcDbEntity
  8
Defpoints
 62
     0
100
AcDbPoint
 10
985.0199676943034
 20
341.8799005387898
 30
0.0
  0
POINT
  5
77A
330
6E7
100
AcDbEntity
  8
Defpoints
 62
     0
100
AcDbPoint
 10
982.5627806401831
 20
341.8799005387898
 30
0.0
  0
POINT
  5
77B
330
6E7
100
AcDbEntity
  8
Defpoints
 62
     0
100
AcDbPoint
 10
982.5627806401831
 20
339.970269116781
 30
0.0
  0
ENDBLK
  5
6E9
330
6E7
100
AcDbEntity
  8
0
100
AcDbBlockEnd
  0
BLOCK
  5
6F6
330
6F5
100
AcDbEntity
  8
0
100
AcDbBlockBegin
  2
*D16
 70
     1
 10
0.0
 20
0.0
 30
0.0
  3
*D16
  1

  0
LINE
  5
77C
330
6F5
100
AcDbEntity
  8
0
 62
     0
370
    -2
100
AcDbLine
 10
986.6580926003766
 20
336.1738109660274
 30
0.0
 11
986.6580926003766
 21
333.6279188965641
 31
0.0
  0
LINE
  5
77D
330
6F5
100
AcDbEntity
  8
0
 62
     0
370
    -2
100
AcDbLine
 10
983.5638568022337
 20
336.1738109660274
 30
0.0
 11
983.5638568022337
 21
333.6279188965641
 31
0.0
  0
LINE
  5
77E
330
6F5
100
AcDbEntity
  8
0
 62
     0
370
    -2
100
AcDbLine
 10
989.1580926003767
 20
334.8779188965641
 30
0.0
 11
991.6580926003767
 21
334.8779188965641
 31
0.0
  0
LINE
  5
77F
330
6F5
100
AcDbEntity
  8
0
 62
     0
370
    -2
100
AcDbLine
 10
981.0638568022337
 20
334.8779188965641
 30
0.0
 11
967.2305234689005
 21
334.8779188965641
 31
0.0
  0
LINE
  5
780
330
6F5
100
AcDbEntity
  8
0
 62
     0
370
    -2
100
AcDbLine
 10
986.6580926003766
 20
334.8779188965641
 30
0.0
 11
983.5638568022337
 21
334.8779188965641
 31
0.0
  0
INSERT
  5
781
330
6F5
100
AcDbEntity
  8
0
 62
     0
370
    -2
100
AcDbBlockReference
  2
_Open30
 10
986.6580926003766
 20
334.8779188965641
 30
0.0
 41
2.5
 42
2.5
 43
2.5
 50
180.0
  0
INSERT
  5
782
330
6F5
100
AcDbEntity
  8
0
 62
     0
370
    -2
100
AcDbBlockReference
  2
_Open30
 10
983.5638568022337
 20
334.8779188965641
 30
0.0
 41
2.5
 42
2.5
 43
2.5
  0
MTEXT
  5
783
330
6F5
100
AcDbEntity
  8
0
 62
     4
100
AcDbMText
 10
972.4388568022337
 20
336.7529188965641
 30
0.0
 40
2.5
 41
0.0
 71
     5
 72
     1
  1
15.47
  7
高2.5
 73
     1
 44
1.0
1001
ACAD
1000
MTEXTBEGIN
1070
    73
1070
     1
1070
    44
1040
1.0
1070
    74
1070
     0
1000
MTEXTEND
  0
POINT
  5
784
330
6F5
100
AcDbEntity
  8
Defpoints
 62
     0
100
AcDbPoint
 10
986.6580926003766
 20
336.4238109660274
 30
0.0
  0
POINT
  5
785
330
6F5
100
AcDbEntity
  8
Defpoints
 62
     0
100
AcDbPoint
 10
983.5638568022337
 20
336.4238109660274
 30
0.0
  0
POINT
  5
786
330
6F5
100
AcDbEntity
  8
Defpoints
 62
     0
100
AcDbPoint
 10
983.5638568022337
 20
334.8779188965641
 30
0.0
  0
ENDBLK
  5
6F7
330
6F5
100
AcDbEntity
  8
0
100
AcDbBlockEnd
  0
BLOCK
  5
704
330
703
100
AcDbEntity
  8
0
100
AcDbBlockBegin
  2
*D17
 70
     1
 10
0.0
 20
0.0
 30
0.0
  3
*D17
  1

  0
LINE
  5
787
330
703
100
AcDbEntity
  8
0
 62
     0
370
    -2
100
AcDbLine
 10
988.3872242084621
 20
330.7177212501809
 30
0.0
 11
988.3872242084621
 21
328.4446335878137
 31
0.0
  0
LINE
  5
788
330
703
100
AcDbEntity
  8
0
 62
     0
370
    -2
100
AcDbLine
 10
984.3829192552702
 20
330.7177212501809
 30
0.0
 11
984.3829192552702
 21
328.4446335878137
 31
0.0
  0
LINE
  5
789
330
703
100
AcDbEntity
  8
0
 62
     0
370
    -2
100
AcDbLine
 10
990.8872242084621
 20
329.6946335878137
 30
0.0
 11
993.3872242084621
 21
329.6946335878137
 31
0.0
  0
LINE
  5
78A
330
703
100
AcDbEntity
  8
0
 62
     0
370
    -2
100
AcDbLine
 10
981.8829192552703
 20
329.6946335878137
 30
0.0
 11
970.1329192552703
 21
329.6946335878137
 31
0.0
  0
LINE
  5
78B
330
703
100
AcDbEntity
  8
0
 62
     0
370
    -2
100
AcDbLine
 10
988.3872242084621
 20
329.6946335878137
 30
0.0
 11
984.3829192552702
 21
329.6946335878137
 31
0.0
  0
INSERT
  5
78C
330
703
100
AcDbEntity
  8
0
 62
     0
370
    -2
100
AcDbBlockReference
  2
_Open30
 10
988.3872242084621
 20
329.6946335878137
 30
0.0
 41
2.5
 42
2.5
 43
2.5
 50
180.0
  0
INSERT
  5
78D
330
703
100
AcDbEntity
  8
0
 62
     0
370
    -2
100
AcDbBlockReference
  2
_Open30
 10
984.3829192552702
 20
329.6946335878137
 30
0.0
 41
2.5
 42
2.5
 43
2.5
  0
MTEXT
  5
78E
330
703
100
AcDbEntity
  8
0
 62
     4
100
AcDbMText
 10
974.7579192552702
 20
331.9196335878137
 30
0.0
 40
3.2
 41
0.0
 71
     5
 72
     1
  1
8.01
  7
高3.2
 73
     1
 44
1.0
1001
ACAD
1000
MTEXTBEGIN
1070
    73
1070
     1
1070
    44
1040
1.0
1070
    74
1070
     0
1000
MTEXTEND
  0
POINT
  5
78F
330
703
100
AcDbEntity
  8
Defpoints
 62
     0
100
AcDbPoint
 10
988.3872242084621
 20
330.967721250181
 30
0.0
  0
POINT
  5
790
330
703
100
AcDbEntity
  8
Defpoints
 62
     0
100
AcDbPoint
 10
984.3829192552702
 20
330.967721250181
 30
0.0
  0
POINT
  5
791
330
703
100
AcDbEntity
  8
Defpoints
 62
     0
100
AcDbPoint
 10
984.3829192552702
 20
329.6946335878137
 30
0.0
  0
ENDBLK
  5
705
330
703
100
AcDbEntity
  8
0
100
AcDbBlockEnd
  0
BLOCK
  5
712
330
711
100
AcDbEntity
  8
0
100
AcDbBlockBegin
  2
*D18
 70
     1
 10
0.0
 20
0.0
 30
0.0
  3
*D18
  1

  0
LINE
  5
792
330
711
100
AcDbEntity
  8
0
 62
     0
370
    -2
100
AcDbLine
 10
988.2962175064498
 20
325.4435012821493
 30
0.0
 11
988.2962175064498
 21
323.6250877746929
 31
0.0
  0
LINE
  5
793
330
711
100
AcDbEntity
  8
0
 62
     0
370
    -2
100
AcDbLine
 10
983.5638568022337
 20
325.4435012821493
 30
0.0
 11
983.5638568022337
 21
323.6250877746929
 31
0.0
  0
LINE
  5
794
330
711
100
AcDbEntity
  8
0
 62
     0
370
    -2
100
AcDbLine
 10
990.7962175064499
 20
324.8750877746929
 30
0.0
 11
993.2962175064499
 21
324.8750877746929
 31
0.0
  0
LINE
  5
795
330
711
100
AcDbEntity
  8
0
 62
     0
370
    -2
100
AcDbLine
 10
981.0638568022337
 20
324.8750877746929
 30
0.0
 11
959.3138568022338
 21
324.8750877746929
 31
0.0
  0
LINE
  5
796
330
711
100
AcDbEntity
  8
0
 62
     0
370
    -2
100
AcDbLine
 10
988.2962175064498
 20
324.8750877746929
 30
0.0
 11
983.5638568022337
 21
324.8750877746929
 31
0.0
  0
INSERT
  5
797
330
711
100
AcDbEntity
  8
0
 62
     0
370
    -2
100
AcDbBlockReference
  2
_Open30
 10
988.2962175064498
 20
324.8750877746929
 30
0.0
 41
2.5
 42
2.5
 43
2.5
 50
180.0
  0
INSERT
  5
798
330
711
100
AcDbEntity
  8
0
 62
     0
370
    -2
100
AcDbBlockReference
  2
_Open30
 10
983.5638568022337
 20
324.8750877746929
 30
0.0
 41
2.5
 42
2.5
 43
2.5
  0
MTEXT
  5
799
330
711
100
AcDbEntity
  8
0
 62
     4
100
AcDbMText
 10
968.9388568022337
 20
327.7500877746929
 30
0.0
 40
4.5
 41
0.0
 71
     5
 72
     1
  1
47.32
  7
高4.5
 73
     1
 44
1.0
1001
ACAD
1000
MTEXTBEGIN
1070
    73
1070
     1
1070
    44
1040
1.0
1070
    74
1070
     0
1000
MTEXTEND
  0
POINT
  5
79A
330
711
100
AcDbEntity
  8
Defpoints
 62
     0
100
AcDbPoint
 10
988.2962175064498
 20
325.6935012821494
 30
0.0
  0
POINT
  5
79B
330
711
100
AcDbEntity
  8
Defpoints
 62
     0
100
AcDbPoint
 10
983.5638568022337
 20
325.6935012821494
 30
0.0
  0
POINT
  5
79C
330
711
100
AcDbEntity
  8
Defpoints
 62
     0
100
AcDbPoint
 10
983.5638568022337
 20
324.8750877746929
 30
0.0
  0
ENDBLK
  5
713
330
711
100
AcDbEntity
  8
0
100
AcDbBlockEnd
  0
BLOCK
  5
720
330
71F
100
AcDbEntity
  8
0
100
AcDbBlockBegin
  2
*D19
 70
     1
 10
0.0
 20
0.0
 30
0.0
  3
*D19
  1

  0
LINE
  5
79D
330
71F
100
AcDbEntity
  8
0
 62
     0
370
    -2
100
AcDbLine
 10
1009.773853774457
 20
341.6299005387898
 30
0.0
 11
1009.773853774457
 21
338.720269116781
 31
0.0
  0
LINE
  5
79E
330
71F
100
AcDbEntity
  8
0
 62
     0
370
    -2
100
AcDbLine
 10
1007.316666720337
 20
341.6299005387898
 30
0.0
 11
1007.316666720337
 21
338.720269116781
 31
0.0
  0
LINE
  5
79F
330
71F
100
AcDbEntity
  8
0
 62
     0
370
    -2
100
AcDbLine
 10
1012.273853774457
 20
339.970269116781
 30
0.0
 11
1014.773853774457
 21
339.970269116781
 31
0.0
  0
LINE
  5
7A0
330
71F
100
AcDbEntity
  8
0
 62
     0
370
    -2
100
AcDbLine
 10
1004.816666720337
 20
339.970269116781
 30
0.0
 11
983.216666720337
 21
339.970269116781
 31
0.0
  0
LINE
  5
7A1
330
71F
100
AcDbEntity
  8
0
 62
     0
370
    -2
100
AcDbLine
 10
1009.773853774457
 20
339.970269116781
 30
0.0
 11
1007.316666720337
 21
339.970269116781
 31
0.0
  0
INSERT
  5
7A2
330
71F
100
AcDbEntity
  8
0
 62
     0
370
    -2
100
AcDbBlockReference
  2
_Open30
 10
1009.773853774457
 20
339.970269116781
 30
0.0
 41
2.5
 42
2.5
 43
2.5
 50
180.0
  0
INSERT
  5
7A3
330
71F
100
AcDbEntity
  8
0
 62
     0
370
    -2
100
AcDbBlockReference
  2
_Open30
 10
1007.316666720337
 20
339.970269116781
 30
0.0
 41
2.5
 42
2.5
 43
2.5
  0
MTEXT
  5
7A4
330
71F
100
AcDbEntity
  8
0
 62
     4
100
AcDbMText
 10
992.766666720337
 20
343.745269116781
 30
0.0
 40
6.299999999999998
 41
0.0
 71
     5
 72
     1
  1
0.25
  7
高6.3
 73
     1
 44
1.0
1001
ACAD
1000
MTEXTBEGIN
1070
    73
1070
     1
1070
    44
1040
1.0
1070
    74
1070
     0
1000
MTEXTEND
  0
POINT
  5
7A5
330
71F
100
AcDbEntity
  8
Defpoints
 62
     0
100
AcDbPoint
 10
1009.773853774457
 20
341.8799005387898
 30
0.0
  0
POINT
  5
7A6
330
71F
100
AcDbEntity
  8
Defpoints
 62
     0
100
AcDbPoint
 10
1007.316666720337
 20
341.8799005387898
 30
0.0
  0
POINT
  5
7A7
330
71F
100
AcDbEntity
  8
Defpoints
 62
     0
100
AcDbPoint
 10
1007.316666720337
 20
339.970269116781
 30
0.0
  0
ENDBLK
  5
721
330
71F
100
AcDbEntity
  8
0
100
AcDbBlockEnd
  0
BLOCK
  5
72E
330
72D
100
AcDbEntity
  8
0
100
AcDbBlockBegin
  2
*D20
 70
     1
 10
0.0
 20
0.0
 30
0.0
  3
*D20
  1

  0
LINE
  5
7A8
330
72D
100
AcDbEntity
  8
0
 62
     0
370
    -2
100
AcDbLine
 10
1011.41197868053
 20
336.1738109660274
 30
0.0
 11
1011.41197868053
 21
333.6279188965641
 31
0.0
  0
LINE
  5
7A9
330
72D
100
AcDbEntity
  8
0
 62
     0
370
    -2
100
AcDbLine
 10
1008.317742882387
 20
336.1738109660274
 30
0.0
 11
1008.317742882387
 21
333.6279188965641
 31
0.0
  0
LINE
  5
7AA
330
72D
100
AcDbEntity
  8
0
 62
     0
370
    -2
100
AcDbLine
 10
1013.91197868053
 20
334.8779188965641
 30
0.0
 11
1016.41197868053
 21
334.8779188965641
 31
0.0
  0
LINE
  5
7AB
330
72D
100
AcDbEntity
  8
0
 62
     0
370
    -2
100
AcDbLine
 10
1005.817742882388
 20
334.8779188965641
 30
0.0
 11
993.8177428823875
 21
334.8779188965641
 31
0.0
  0
LINE
  5
7AC
330
72D
100
AcDbEntity
  8
0
 62
     0
370
    -2
100
AcDbLine
 10
1011.41197868053
 20
334.8779188965641
 30
0.0
 11
1008.317742882387
 21
334.8779188965641
 31
0.0
  0
INSERT
  5
7AD
330
72D
100
AcDbEntity
  8
0
 62
     0
370
    -2
100
AcDbBlockReference
  2
_Open30
 10
1011.41197868053
 20
334.8779188965641
 30
0.0
 41
2.5
 42
2.5
 43
2.5
 50
180.0
  0
INSERT
  5
7AE
330
72D
100
AcDbEntity
  8
0
 62
     0
370
    -2
100
AcDbBlockReference
  2
_Open30
 10
1008.317742882387
 20
334.8779188965641
 30
0.0
 41
2.5
 42
2.5
 43
2.5
  0
MTEXT
  5
7AF
330
72D
100
AcDbEntity
  8
0
 62
     4
100
AcDbMText
 10
998.4427428823876
 20
337.0029188965641
 30
0.0
 40
3.0
 41
0.0
 71
     5
 72
     1
  1
1.55
 73
     1
 44
1.0
1001
ACAD
1000
MTEXTBEGIN
1070
    73
1070
     1
1070
    44
1040
1.0
1070
    74
1070
     0
1000
MTEXTEND
  0
POINT
  5
7B0
330
72D
100
AcDbEntity
  8
Defpoints
 62
     0
100
AcDbPoint
 10
1011.41197868053
 20
336.4238109660274
 30
0.0
  0
POINT
  5
7B1
330
72D
100
AcDbEntity
  8
Defpoints
 62
     0
100
AcDbPoint
 10
1008.317742882387
 20
336.4238109660274
 30
0.0
  0
POINT
  5
7B2
330
72D
100
AcDbEntity
  8
Defpoints
 62
     0
100
AcDbPoint
 10
1008.317742882387
 20
334.8779188965641
 30
0.0
  0
ENDBLK
  5
72F
330
72D
100
AcDbEntity
  8
0
100
AcDbBlockEnd
  0
BLOCK
  5
73C
330
73B
100
AcDbEntity
  8
0
100
AcDbBlockBegin
  2
*D21
 70
     1
 10
0.0
 20
0.0
 30
0.0
  3
*D21
  1

  0
LINE
  5
7B3
330
73B
100
AcDbEntity
  8
0
 62
     0
370
    -2
100
AcDbLine
 10
1013.141110288616
 20
330.7177212501809
 30
0.0
 11
1013.141110288616
 21
328.4446335878137
 31
0.0
  0
LINE
  5
7B4
330
73B
100
AcDbEntity
  8
0
 62
     0
370
    -2
100
AcDbLine
 10
1009.136805335424
 20
330.7177212501809
 30
0.0
 11
1009.136805335424
 21
328.4446335878137
 31
0.0
  0
LINE
  5
7B5
330
73B
100
AcDbEntity
  8
0
 62
     0
370
    -2
100
AcDbLine
 10
1015.641110288616
 20
329.6946335878137
 30
0.0
 11
1018.141110288616
 21
329.6946335878137
 31
0.0
  0
LINE
  5
7B6
330
73B
100
AcDbEntity
  8
0
 62
     0
370
    -2
100
AcDbLine
 10
1006.636805335424
 20
329.6946335878137
 30
0.0
 11
998.303472002091
 21
329.6946335878137
 31
0.0
  0
LINE
  5
7B7
330
73B
100
AcDbEntity
  8
0
 62
     0
370
    -2
100
AcDbLine
 10
1013.141110288616
 20
329.6946335878137
 30
0.0
 11
1009.136805335424
 21
329.6946335878137
 31
0.0
  0
INSERT
  5
7B8
330
73B
100
AcDbEntity
  8
0
 62
     0
370
    -2
100
AcDbBlockReference
  2
_Open30
 10
1013.141110288616
 20
329.6946335878137
 30
0.0
 41
2.5
 42
2.5
 43
2.5
 50
180.0
  0
INSERT
  5
7B9
330
73B
100
AcDbEntity
  8
0
 62
     0
370
    -2
100
AcDbBlockReference
  2
_Open30
 10
1009.136805335424
 20
329.6946335878137
 30
0.0
 41
2.5
 42
2.5
 43
2.5
  0
MTEXT
  5
7BA
330
73B
100
AcDbEntity
  8
0
 62
     4
100
AcDbMText
 10
1000.761805335424
 20
331.3196335878136
 30
0.0
 40
2.0
 41
0.0
 71
     5
 72
     1
  1
0.8
  7
高2
 73
     1
 44
1.0
1001
ACAD
1000
MTEXTBEGIN
1070
    73
1070
     1
1070
    44
1040
1.0
1070
    74
1070
     0
1000
MTEXTEND
  0
POINT
  5
7BB
330
73B
100
AcDbEntity
  8
Defpoints
 62
     0
100
AcDbPoint
 10
1013.141110288616
 20
330.967721250181
 30
0.0
  0
POINT
  5
7BC
330
73B
100
AcDbEntity
  8
Defpoints
 62
     0
100
AcDbPoint
 10
1009.136805335424
 20
330.967721250181
 30
0.0
  0
POINT
  5
7BD
330
73B
100
AcDbEntity
  8
Defpoints
 62
     0
100
AcDbPoint
 10
1009.136805335424
 20
329.6946335878137
 30
0.0
  0
ENDBLK
  5
73D
330
73B
100
AcDbEntity
  8
0
100
AcDbBlockEnd
  0
BLOCK
  5
74A
330
749
100
AcDbEntity
  8
0
100
AcDbBlockBegin
  2
*D22
 70
     1
 10
0.0
 20
0.0
 30
0.0
  3
*D22
  1

  0
LINE
  5
7BE
330
749
100
AcDbEntity
  8
0
 62
     0
370
    -2
100
AcDbLine
 10
1013.050103586603
 20
325.4435012821493
 30
0.0
 11
1013.050103586603
 21
323.6250877746929
 31
0.0
  0
LINE
  5
7BF
330
749
100
AcDbEntity
  8
0
 62
     0
370
    -2
100
AcDbLine
 10
1008.317742882387
 20
325.4435012821493
 30
0.0
 11
1008.317742882387
 21
323.6250877746929
 31
0.0
  0
LINE
  5
7C0
330
749
100
AcDbEntity
  8
0
 62
     0
370
    -2
100
AcDbLine
 10
1015.550103586603
 20
324.8750877746929
 30
0.0
 11
1018.050103586603
 21
324.8750877746929
 31
0.0
  0
LINE
  5
7C1
330
749
100
AcDbEntity
  8
0
 62
     0
370
    -2
100
AcDbLine
 10
1005.817742882388
 20
324.8750877746929
 30
0.0
 11
991.0677428823875
 21
324.8750877746929
 31
0.0
  0
LINE
  5
7C2
330
749
100
AcDbEntity
  8
0
 62
     0
370
    -2
100
AcDbLine
 10
1013.050103586603
 20
324.8750877746929
 30
0.0
 11
1008.317742882387
 21
324.8750877746929
 31
0.0
  0
INSERT
  5
7C3
330
749
100
AcDbEntity
  8
0
 62
     0
370
    -2
100
AcDbBlockReference
  2
_Open30
 10
1013.050103586603
 20
324.8750877746929
 30
0.0
 41
2.5
 42
2.5
 43
2.5
 50
180.0
  0
INSERT
  5
7C4
330
749
100
AcDbEntity
  8
0
 62
     0
370
    -2
100
AcDbBlockReference
  2
_Open30
 10
1008.317742882387
 20
324.8750877746929
 30
0.0
 41
2.5
 42
2.5
 43
2.5
  0
MTEXT
  5
7C5
330
749
100
AcDbEntity
  8
0
 62
     4
100
AcDbMText
 10
997.1927428823876
 20
327.0000877746929
 30
0.0
 40
3.0
 41
0.0
 71
     5
 72
     1
  1
18.93
 73
     1
 44
1.0
1001
ACAD
1000
MTEXTBEGIN
1070
    73
1070
     1
1070
    44
1040
1.0
1070
    74
1070
     0
1000
MTEXTEND
  0
POINT
  5
7C6
330
749
100
AcDbEntity
  8
Defpoints
 62
     0
100
AcDbPoint
 10
1013.050103586603
 20
325.6935012821494
 30
0.0
  0
POINT
  5
7C7
330
749
100
AcDbEntity
  8
Defpoints
 62
     0
100
AcDbPoint
 10
1008.317742882387
 20
325.6935012821494
 30
0.0
  0
POINT
  5
7C8
330
749
100
AcDbEntity
  8
Defpoints
 62
     0
100
AcDbPoint
 10
1008.317742882387
 20
324.8750877746929
 30
0.0
  0
ENDBLK
  5
74B
330
749
100
AcDbEntity
  8
0
100
AcDbBlockEnd
  0
BLOCK
  5
758
330
757
100
AcDbEntity
  8
0
100
AcDbBlockBegin
  2
*D23
 70
     1
 10
0.0
 20
0.0
 30
0.0
  3
*D23
  1

  0
LINE
  5
7C9
330
757
100
AcDbEntity
  8
0
 62
     0
370
    -2
100
AcDbLine
 10
1010.245676735465
 20
320.3876610755596
 30
0.0
 11
1010.245676735465
 21
318.077739998684
 31
0.0
  0
LINE
  5
7CA
330
757
100
AcDbEntity
  8
0
 62
     0
370
    -2
100
AcDbLine
 10
1005.657001533317
 20
320.3876610755596
 30
0.0
 11
1005.657001533317
 21
318.077739998684
 31
0.0
  0
LINE
  5
7CB
330
757
100
AcDbEntity
  8
0
 62
     0
370
    -2
100
AcDbLine
 10
1012.745676735465
 20
319.327739998684
 30
0.0
 11
1015.245676735465
 21
319.327739998684
 31
0.0
  0
LINE
  5
7CC
330
757
100
AcDbEntity
  8
0
 62
     0
370
    -2
100
AcDbLine
 10
1003.157001533317
 20
319.327739998684
 30
0.0
 11
988.4070015333175
 21
319.327739998684
 31
0.0
  0
LINE
  5
7CD
330
757
100
AcDbEntity
  8
0
 62
     0
370
    -2
100
AcDbLine
 10
1010.245676735465
 20
319.327739998684
 30
0.0
 11
1005.657001533317
 21
319.327739998684
 31
0.0
  0
INSERT
  5
7CE
330
757
100
AcDbEntity
  8
0
 62
     0
370
    -2
100
AcDbBlockReference
  2
_Open30
 10
1010.245676735465
 20
319.327739998684
 30
0.0
 41
2.5
 42
2.5
 43
2.5
 50
180.0
  0
INSERT
  5
7CF
330
757
100
AcDbEntity
  8
0
 62
     0
370
    -2
100
AcDbBlockReference
  2
_Open30
 10
1005.657001533317
 20
319.327739998684
 30
0.0
 41
2.5
 42
2.5
 43
2.5
  0
MTEXT
  5
7D0
330
757
100
AcDbEntity
  8
0
 62
     4
100
AcDbMText
 10
994.5320015333175
 20
321.452739998684
 30
0.0
 40
3.0
 41
0.0
 71
     5
 72
     1
  1
13.77
 73
     1
 44
1.0
1001
ACAD
1000
MTEXTBEGIN
1070
    73
1070
     1
1070
    44
1040
1.0
1070
    74
1070
     0
1000
MTEXTEND
  0
POINT
  5
7D1
330
757
100
AcDbEntity
  8
Defpoints
 62
     0
100
AcDbPoint
 10
1010.245676735465
 20
320.6376610755595
 30
0.0
  0
POINT
  5
7D2
330
757
100
AcDbEntity
  8
Defpoints
 62
     0
100
AcDbPoint
 10
1005.657001533317
 20
320.6376610755595
 30
0.0
  0
POINT
  5
7D3
330
757
100
AcDbEntity
  8
Defpoints
 62
     0
100
AcDbPoint
 10
1005.657001533317
 20
319.327739998684
 30
0.0
  0
ENDBLK
  5
759
330
757
100
AcDbEntity
  8
0
100
AcDbBlockEnd
  0
BLOCK
  5
766
330
765
100
AcDbEntity
  8
0
100
AcDbBlockBegin
  2
*D24
 70
     1
 10
0.0
 20
0.0
 30
0.0
  3
*D24
  1

  0
LINE
  5
7D4
330
765
100
AcDbEntity
  8
0
 62
     0
370
    -2
100
AcDbLine
 10
1003.149393902315
 20
351.3171523938339
 30
0.0
 11
1003.149393902315
 21
358.7136858717717
 31
0.0
  0
LINE
  5
7D5
330
765
100
AcDbEntity
  8
0
 62
     0
370
    -2
100
AcDbLine
 10
993.210919532825
 20
351.3171523938339
 30
0.0
 11
993.210919532825
 21
358.7136858717717
 31
0.0
  0
LINE
  5
7D6
330
765
100
AcDbEntity
  8
0
 62
     0
370
    -2
100
AcDbLine
 10
1000.649393902315
 20
357.4636858717716
 30
0.0
 11
995.710919532825
 21
357.4636858717716
 31
0.0
  0
INSERT
  5
7D7
330
765
100
AcDbEntity
  8
0
 62
     0
370
    -2
100
AcDbBlockReference
  2
_Open30
 10
1003.149393902315
 20
357.4636858717716
 30
0.0
 41
2.5
 42
2.5
 43
2.5
  0
INSERT
  5
7D8
330
765
100
AcDbEntity
  8
0
 62
     0
370
    -2
100
AcDbBlockReference
  2
_Open30
 10
993.210919532825
 20
357.4636858717716
 30
0.0
 41
2.5
 42
2.5
 43
2.5
 50
180.0
  0
MTEXT
  5
7D9
330
765
100
AcDbEntity
  8
0
 62
     4
100
AcDbMText
 10
998.18015671757
 20
360.5386858717716
 30
0.0
 40
3.0
 41
0.0
 71
     5
 72
     1
  1
9.94\H0.7X;\S+0^ -0.02;
 73
     1
 44
1.0
1001
ACAD
1000
MTEXTBEGIN
1070
    73
1070
     1
1070
    44
1040
1.0
1070
    74
1070
     0
1000
MTEXTEND
  0
POINT
  5
7DA
330
765
100
AcDbEntity
  8
Defpoints
 62
     0
100
AcDbPoint
 10
1003.149393902315
 20
351.0671523938339
 30
0.0
  0
POINT
  5
7DB
330
765
100
AcDbEntity
  8
Defpoints
 62
     0
100
AcDbPoint
 10
993.210919532825
 20
351.0671523938339
 30
0.0
  0
POINT
  5
7DC
330
765
100
AcDbEntity
  8
Defpoints
 62
     0
100
AcDbPoint
 10
993.210919532825
 20
357.4636858717716
 30
0.0
  0
ENDBLK
  5
767
330
765
100
AcDbEntity
  8
0
100
AcDbBlockEnd
  0
ENDSEC
  0
SECTION
  2
ENTITIES
  0
LINE
  5
BB
330
6B
100
AcDbEntity
  8
0
 62
     3
100
AcDbLine
 10
417.109295
 20
183.442132
 30
0.0
 11
399.109295
 21
183.442132
 31
0.0
  0
LINE
  5
BC
330
6B
100
AcDbEntity
  8
0
 62
     3
100
AcDbLine
 10
422.109295
 20
223.306868
 30
0.0
 11
422.109295
 21
188.442132
 31
0.0
  0
LINE
  5
BD
330
6B
100
AcDbEntity
  8
0
 62
     3
100
AcDbLine
 10
394.109295
 20
223.306868
 30
0.0
 11
394.109295
 21
188.442132
 31
0.0
  0
LINE
  5
BE
330
6B
100
AcDbEntity
  8
0
 62
     3
100
AcDbLine
 10
415.609295
 20
355.942132
 30
0.0
 11
400.609295
 21
355.942132
 31
0.0
  0
ARC
  5
BF
330
6B
100
AcDbEntity
  8
0
 62
     3
100
AcDbCircle
 10
384.2826819999999
 20
283.442132
 30
0.0
 40
68.82661299999999
100
AcDbArc
 50
305.457381
 51
55.95946099999999
  0
ARC
  5
C0
330
6B
100
AcDbEntity
  8
0
 62
     3
100
AcDbCircle
 10
431.9359079999999
 20
283.442132
 30
0.0
 40
68.82661299999999
100
AcDbArc
 50
124.040539
 51
234.542619
  0
ARC
  5
C1
330
6B
100
AcDbEntity
  8
0
 62
     3
100
AcDbCircle
 10
417.109295
 20
188.442132
 30
0.0
 40
5.0
100
AcDbArc
 50
270.0
 51
0.0
  0
ARC
  5
C2
330
6B
100
AcDbEntity
  8
0
 62
     3
100
AcDbCircle
 10
399.109295
 20
188.442132
 30
0.0
 40
5.0
100
AcDbArc
 50
180.0
 51
270.0
  0
ARC
  5
C3
330
6B
100
AcDbEntity
  8
0
 62
     3
100
AcDbCircle
 10
427.109295
 20
223.306868
 30
0.0
 40
5.0
100
AcDbArc
 50
125.457381
 51
180.0
  0
ARC
  5
C4
330
6B
100
AcDbEntity
  8
0
 62
     3
100
AcDbCircle
 10
389.109295
 20
223.306868
 30
0.0
 40
5.0
100
AcDbArc
 50
0.0
 51
54.54261899999998
  0
LINE
  5
C5
330
6B
100
AcDbEntity
  8
0
 62
     3
100
AcDbLine
 10
420.609295
 20
344.617943
 30
0.0
 11
420.609295
 21
350.9421319999999
 31
0.0
  0
LINE
  5
C6
330
6B
100
AcDbEntity
  8
0
 62
     3
100
AcDbLine
 10
395.609295
 20
344.617943
 30
0.0
 11
395.609295
 21
350.9421319999999
 31
0.0
  0
ARC
  5
C7
330
6B
100
AcDbEntity
  8
0
 62
     3
100
AcDbCircle
 10
425.609295
 20
344.617943
 30
0.0
 40
5.0
100
AcDbArc
 50
180.0
 51
235.9594609999999
  0
ARC
  5
C8
330
6B
100
AcDbEntity
  8
0
 62
     3
100
AcDbCircle
 10
390.6092950000001
 20
344.617943
 30
0.0
 40
5.0
100
AcDbArc
 50
304.040539
 51
0.0
  0
ARC
  5
C9
330
6B
100
AcDbEntity
  8
0
 62
     3
100
AcDbCircle
 10
415.609295
 20
350.9421319999999
 30
0.0
 40
5.0
100
AcDbArc
 50
0.0
 51
90.0
  0
ARC
  5
CA
330
6B
100
AcDbEntity
  8
0
 62
     3
100
AcDbCircle
 10
400.609295
 20
350.9421319999999
 30
0.0
 40
5.0
100
AcDbArc
 50
90.0
 51
180.0
  0
LINE
  5
CB
330
6B
100
AcDbEntity
  8
0
 62
     3
100
AcDbLine
 10
323.666592
 20
250.437587
 30
0.0
 11
323.178665
 21
250.437587
 31
0.0
  0
LINE
  5
CC
330
6B
100
AcDbEntity
  8
0
 62
     3
100
AcDbLine
 10
431.578665
 20
384.432197
 30
0.0
 11
515.178665
 21
384.432197
 31
0.0
  0
TEXT
  5
CD
330
6B
100
AcDbEntity
  8
0
 62
     3
100
AcDbText
 10
504.453665
 20
380.287197
 30
0.0
 40
3.2
  1
担
  7
高3.2
100
AcDbText
  0
TEXT
  5
CE
330
6B
100
AcDbEntity
  8
0
 62
     3
100
AcDbText
 10
511.341165
 20
380.287197
 30
0.0
 40
3.2
  1
当
  7
高3.2
100
AcDbText
  0
TEXT
  5
CF
330
6B
100
AcDbEntity
  8
0
 62
     3
100
AcDbText
 10
464.257888
 20
380.270035
 30
0.0
 40
3.2
  1
変更・追記内容
  7
高3.2
100
AcDbText
  0
LINE
  5
D0
330
6B
100
AcDbEntity
  8
0
 62
     3
100
AcDbLine
 10
431.578665
 20
388.937587
 30
0.0
 11
431.578665
 21
369.582197
 31
0.0
  0
TEXT
  5
D1
330
6B
100
AcDbEntity
  8
0
 62
     3
100
AcDbText
 10
436.0920946797512
 20
375.6146166727658
 30
0.0
 40
2.0
  1
1
  7
高2
100
AcDbText
  0
TEXT
  5
D2
330
6B
100
AcDbEntity
  8
0
 62
     3
100
AcDbText
 10
435.7459507387732
 20
370.4437453136593
 30
0.0
 40
2.0
  1
2
  7
高2
100
AcDbText
  0
TEXT
  5
D3
330
6B
100
AcDbEntity
  8
0
 62
     3
100
AcDbText
 10
444.5376139999998
 20
380.1976617559537
 30
0.0
 40
3.2
  1
日
  7
高3.2
100
AcDbText
  0
TEXT
  5
D4
330
6B
100
AcDbEntity
  8
0
 62
     3
100
AcDbText
 10
453.414488
 20
380.1976617559537
 30
0.0
 40
3.2
  1
付
  7
高3.2
100
AcDbText
  0
TEXT
  5
D5
330
6B
100
AcDbEntity
  8
0
 62
     3
100
AcDbText
 10
444.3634549999998
 20
385.082197
 30
0.0
 40
3.2
  1
図
  7
高3.2
100
AcDbText
  0
TEXT
  5
D6
330
6B
100
AcDbEntity
  8
0
 62
     3
100
AcDbText
 10
463.0193499999998
 20
385.082197
 30
0.0
 40
3.2
  1
面
  7
高3.2
100
AcDbText
  0
TEXT
  5
D7
330
6B
100
AcDbEntity
  8
0
 62
     3
100
AcDbText
 10
481.675246
 20
385.082197
 30
0.0
 40
3.2
  1
略
  7
高3.2
100
AcDbText
  0
TEXT
  5
D8
330
6B
100
AcDbEntity
  8
0
 62
     3
100
AcDbText
 10
500.331141
 20
385.082197
 30
0.0
 40
3.2
  1
歴
  7
高3.2
100
AcDbText
  0
TEXT
  5
D9
330
6B
100
AcDbEntity
  8
0
 62
     3
100
AcDbText
 10
432.181029
 20
380.207197
 30
0.0
 40
3.2
  1
記
  7
高3.2
100
AcDbText
  0
TEXT
  5
DA
330
6B
100
AcDbEntity
  8
0
 62
     3
100
AcDbText
 10
438.433937
 20
380.207197
 30
0.0
 40
3.2
  1
号
  7
高3.2
100
AcDbText
  0
LINE
  5
DB
330
6B
100
AcDbEntity
  8
0
 62
     3
100
AcDbLine
 10
505.580021
 20
369.582197
 30
0.0
 11
431.578665
 21
369.582197
 31
0.0
  0
LINE
  5
DC
330
6B
100
AcDbEntity
  8
0
 62
     3
100
AcDbLine
 10
513.7303559999998
 20
369.582197
 30
0.0
 11
505.580021
 21
369.582197
 31
0.0
  0
LINE
  5
DD
330
6B
100
AcDbEntity
  8
0
 62
     3
100
AcDbLine
 10
513.7303559999998
 20
369.582197
 30
0.0
 11
515.178665
 21
369.582197
 31
0.0
  0
LINE
  5
DE
330
6B
100
AcDbEntity
  8
0
 62
     2
100
AcDbLine
 10
402.263017
 20
390.725031
 30
0.0
 11
402.6987649999998
 21
390.497563
 31
0.0
  0
LINE
  5
DF
330
6B
100
AcDbEntity
  8
0
 62
     2
100
AcDbLine
 10
402.263017
 20
386.9944
 30
0.0
 11
402.6987649999998
 21
387.221869
 31
0.0
  0
LINE
  5
E0
330
6B
100
AcDbEntity
  8
0
 62
     2
100
AcDbLine
 10
402.6987649999998
 20
390.497563
 30
0.0
 11
402.6987649999998
 21
387.221869
 31
0.0
  0
LINE
  5
E1
330
6B
100
AcDbEntity
  8
0
 62
     2
100
AcDbLine
 10
403.802282
 20
386.9944
 30
0.0
 11
403.3665339999997
 21
387.221869
 31
0.0
  0
LINE
  5
E2
330
6B
100
AcDbEntity
  8
0
 62
     2
100
AcDbLine
 10
403.3665339999997
 20
389.218727
 30
0.0
 11
403.3665339999997
 21
387.221869
 31
0.0
  0
LINE
  5
E3
330
6B
100
AcDbEntity
  8
0
 62
     2
100
AcDbLine
 10
406.344145
 20
390.725031
 30
0.0
 11
405.908397
 21
390.497563
 31
0.0
  0
LINE
  5
E4
330
6B
100
AcDbEntity
  8
0
 62
     2
100
AcDbLine
 10
404.80488
 20
390.725031
 30
0.0
 11
405.2406279999998
 21
390.497563
 31
0.0
  0
LINE
  5
E5
330
6B
100
AcDbEntity
  8
0
 62
     2
100
AcDbLine
 10
405.2406279999998
 20
390.497563
 30
0.0
 11
405.2406279999998
 21
389.055226
 31
0.0
  0
LINE
  5
E6
330
6B
100
AcDbEntity
  8
0
 62
     2
100
AcDbLine
 10
405.908397
 20
390.497563
 30
0.0
 11
405.908397
 21
386.782839
 31
0.0
  0
LINE
  5
E7
330
6B
100
AcDbEntity
  8
0
 62
     2
100
AcDbLine
 10
406.559442
 20
390.7250279999999
 30
0.0
 11
406.995189
 21
390.497557
 31
0.0
  0
LINE
  5
E8
330
6B
100
AcDbEntity
  8
0
 62
     2
100
AcDbLine
 10
406.559364
 20
386.99445
 30
0.0
 11
406.99512
 21
387.221903
 31
0.0
  0
LINE
  5
E9
330
6B
100
AcDbEntity
  8
0
 62
     2
100
AcDbLine
 10
406.995189
 20
390.497557
 30
0.0
 11
406.995189
 21
387.221903
 31
0.0
  0
LINE
  5
EA
330
6B
100
AcDbEntity
  8
0
 62
     2
100
AcDbLine
 10
408.488979
 20
390.725005
 30
0.0
 11
408.0532279999998
 21
390.497543
 31
0.0
  0
LINE
  5
EB
330
6B
100
AcDbEntity
  8
0
 62
     2
100
AcDbLine
 10
408.0532279999998
 20
390.497543
 30
0.0
 11
408.0532279999998
 21
387.221889
 31
0.0
  0
LINE
  5
EC
330
6B
100
AcDbEntity
  8
0
 62
     2
100
AcDbLine
 10
408.488979
 20
386.994427
 30
0.0
 11
408.0532279999998
 21
387.221889
 31
0.0
  0
LINE
  5
ED
330
6B
100
AcDbEntity
  8
0
 62
     2
100
AcDbLine
 10
412.1792319999998
 20
390.724964
 30
0.0
 11
412.614979
 21
390.497494
 31
0.0
  0
LINE
  5
EE
330
6B
100
AcDbEntity
  8
0
 62
     2
100
AcDbLine
 10
412.614979
 20
390.497494
 30
0.0
 11
412.614922
 21
387.22184
 31
0.0
  0
LINE
  5
EF
330
6B
100
AcDbEntity
  8
0
 62
     2
100
AcDbLine
 10
412.179167
 20
386.994386
 30
0.0
 11
412.614922
 21
387.22184
 31
0.0
  0
LINE
  5
F0
330
6B
100
AcDbEntity
  8
0
 62
     2
100
AcDbLine
 10
414.131493
 20
390.724964
 30
0.0
 11
413.6957459999998
 21
390.497494
 31
0.0
  0
LINE
  5
F1
330
6B
100
AcDbEntity
  8
0
 62
     2
100
AcDbLine
 10
414.1315579999998
 20
386.994386
 30
0.0
 11
413.6958029999998
 21
387.22184
 31
0.0
  0
LINE
  5
F2
330
6B
100
AcDbEntity
  8
0
 62
     2
100
AcDbLine
 10
414.3352209999997
 20
390.724964
 30
0.0
 11
414.770968
 21
390.497494
 31
0.0
  0
LINE
  5
F3
330
6B
100
AcDbEntity
  8
0
 62
     2
100
AcDbLine
 10
414.335156
 20
386.994386
 30
0.0
 11
414.770911
 21
387.22184
 31
0.0
  0
LINE
  5
F4
330
6B
100
AcDbEntity
  8
0
 62
     2
100
AcDbLine
 10
416.2874819999998
 20
390.724964
 30
0.0
 11
415.851735
 21
390.497494
 31
0.0
  0
LINE
  5
F5
330
6B
100
AcDbEntity
  8
0
 62
     2
100
AcDbLine
 10
415.851735
 20
390.497494
 30
0.0
 11
415.8517919999998
 21
387.22184
 31
0.0
  0
LINE
  5
F6
330
6B
100
AcDbEntity
  8
0
 62
     2
100
AcDbLine
 10
416.287547
 20
386.994386
 30
0.0
 11
415.8517919999998
 21
387.22184
 31
0.0
  0
LINE
  5
F7
330
6B
100
AcDbEntity
  8
0
 62
     2
100
AcDbLine
 10
414.7709429999999
 20
389.070361
 30
0.0
 11
413.6957709999999
 21
389.070361
 31
0.0
  0
LINE
  5
F8
330
6B
100
AcDbEntity
  8
0
 62
     2
100
AcDbLine
 10
414.770936
 20
388.64907
 30
0.0
 11
413.6957779999998
 21
388.64907
 31
0.0
  0
LINE
  5
F9
330
6B
100
AcDbEntity
  8
0
 62
     2
100
AcDbLine
 10
414.770968
 20
390.497494
 30
0.0
 11
414.7709429999999
 21
389.070361
 31
0.0
  0
LINE
  5
FA
330
6B
100
AcDbEntity
  8
0
 62
     2
100
AcDbLine
 10
414.770936
 20
388.64907
 30
0.0
 11
414.770911
 21
387.22184
 31
0.0
  0
LINE
  5
FB
330
6B
100
AcDbEntity
  8
0
 62
     2
100
AcDbLine
 10
413.6957459999998
 20
390.497494
 30
0.0
 11
413.6957709999999
 21
389.070361
 31
0.0
  0
LINE
  5
FC
330
6B
100
AcDbEntity
  8
0
 62
     2
100
AcDbLine
 10
413.6957779999998
 20
388.64907
 30
0.0
 11
413.6958029999998
 21
387.22184
 31
0.0
  0
LINE
  5
FD
330
6B
100
AcDbEntity
  8
0
 62
     2
100
AcDbLine
 10
416.494441
 20
390.724964
 30
0.0
 11
416.9301879999999
 21
390.497494
 31
0.0
  0
LINE
  5
FE
330
6B
100
AcDbEntity
  8
0
 62
     2
100
AcDbLine
 10
416.9301879999999
 20
390.497494
 30
0.0
 11
416.9301309999998
 21
387.22184
 31
0.0
  0
LINE
  5
FF
330
6B
100
AcDbEntity
  8
0
 62
     2
100
AcDbLine
 10
416.4943759999998
 20
386.994386
 30
0.0
 11
416.9301309999998
 21
387.22184
 31
0.0
  0
LINE
  5
100
330
6B
100
AcDbEntity
  8
0
 62
     2
100
AcDbLine
 10
418.423951
 20
390.724964
 30
0.0
 11
417.9882039999998
 21
390.497494
 31
0.0
  0
LINE
  5
101
330
6B
100
AcDbEntity
  8
0
 62
     2
100
AcDbLine
 10
417.9882039999998
 20
390.497494
 30
0.0
 11
417.9882609999998
 21
387.22184
 31
0.0
  0
LINE
  5
102
330
6B
100
AcDbEntity
  8
0
 62
     2
100
AcDbLine
 10
418.4240159999998
 20
386.994386
 30
0.0
 11
417.9882609999998
 21
387.22184
 31
0.0
  0
LINE
  5
103
330
6B
100
AcDbEntity
  8
0
 62
     2
100
AcDbLine
 10
418.6383109999998
 20
390.724964
 30
0.0
 11
419.0740579999999
 21
390.497494
 31
0.0
  0
LINE
  5
104
330
6B
100
AcDbEntity
  8
0
 62
     2
100
AcDbLine
 10
419.0740579999999
 20
390.497494
 30
0.0
 11
419.0740009999998
 21
387.22184
 31
0.0
  0
LINE
  5
105
330
6B
100
AcDbEntity
  8
0
 62
     2
100
AcDbLine
 10
418.6382459999999
 20
386.994386
 30
0.0
 11
419.0740009999998
 21
387.22184
 31
0.0
  0
ARC
  5
106
330
6B
100
AcDbEntity
  8
0
 62
     2
100
AcDbCircle
 10
410.787321
 20
388.869105
 30
0.0
 40
2.086285999999998
100
AcDbArc
 50
97.701524
 51
270.0
  0
ARC
  5
107
330
6B
100
AcDbEntity
  8
0
 62
     2
100
AcDbCircle
 10
423.667922
 20
388.8481490000001
 30
0.0
 40
2.108943
100
AcDbArc
 50
0.31425
 51
69.00558199999998
  0
ARC
  5
108
330
6B
100
AcDbEntity
  8
0
 62
     2
100
AcDbCircle
 10
424.1285969999998
 20
388.8481490000001
 30
0.0
 40
2.108943
100
AcDbArc
 50
110.994418
 51
148.116611
  0
ARC
  5
109
330
6B
100
AcDbEntity
  8
0
 62
     2
100
AcDbCircle
 10
423.667922
 20
388.871282
 30
0.0
 40
2.108943
100
AcDbArc
 50
290.994418
 51
359.68575
  0
ARC
  5
10A
330
6B
100
AcDbEntity
  8
0
 62
     2
100
AcDbCircle
 10
424.1285969999998
 20
388.871282
 30
0.0
 40
2.108943
100
AcDbArc
 50
211.883389
 51
249.005582
  0
ARC
  5
10B
330
6B
100
AcDbEntity
  8
0
 62
     2
100
AcDbCircle
 10
423.8982589999998
 20
389.722521
 30
0.0
 40
1.214070999999999
100
AcDbArc
 50
64.365172
 51
115.634828
  0
ARC
  5
10C
330
6B
100
AcDbEntity
  8
0
 62
     2
100
AcDbCircle
 10
423.8982589999998
 20
387.99691
 30
0.0
 40
1.214070999999999
100
AcDbArc
 50
244.365172
 51
295.634828
  0
ARC
  5
10D
330
6B
100
AcDbEntity
  8
0
 62
     2
100
AcDbCircle
 10
423.8982589999998
 20
389.745583
 30
0.0
 40
0.5958560000000001
100
AcDbArc
 50
19.486606
 51
160.513394
  0
ARC
  5
10E
330
6B
100
AcDbEntity
  8
0
 62
     2
100
AcDbCircle
 10
423.8982589999998
 20
387.973849
 30
0.0
 40
0.5958560000000001
100
AcDbArc
 50
199.4866059999999
 51
340.513394
  0
ARC
  5
10F
330
6B
100
AcDbEntity
  8
0
 62
     3
100
AcDbCircle
 10
419.155787
 20
366.631656
 30
0.0
 40
26.04
100
AcDbArc
 50
69.50571500000001
 51
81.689988
  0
ARC
  5
110
330
6B
100
AcDbEntity
  8
0
 62
     3
100
AcDbCircle
 10
419.155787
 20
411.087775
 30
0.0
 40
26.04
100
AcDbArc
 50
278.310012
 51
290.494285
  0
ARC
  5
111
330
6B
100
AcDbEntity
  8
0
 62
     3
100
AcDbCircle
 10
427.463991
 20
388.859716
 30
0.0
 40
2.31
100
AcDbArc
 50
290.494285
 51
69.50571500000001
  0
ARC
  5
112
330
6B
100
AcDbEntity
  8
0
 62
     3
100
AcDbCircle
 10
400.1639909999998
 20
388.859716
 30
0.0
 40
2.31
100
AcDbArc
 50
110.494285
 51
249.505715
  0
ARC
  5
113
330
6B
100
AcDbEntity
  8
0
 62
     3
100
AcDbCircle
 10
408.472195
 20
366.631656
 30
0.0
 40
26.04
100
AcDbArc
 50
98.31001200000001
 51
110.494285
  0
ARC
  5
114
330
6B
100
AcDbEntity
  8
0
 62
     3
100
AcDbCircle
 10
408.472195
 20
411.087775
 30
0.0
 40
26.04
100
AcDbArc
 50
249.505715
 51
261.689988
  0
ARC
  5
115
330
6B
100
AcDbEntity
  8
0
 62
     3
100
AcDbCircle
 10
413.8139909999998
 20
330.0597160000001
 30
0.0
 40
63.0
100
AcDbArc
 50
81.689988
 51
98.31001200000001
  0
ARC
  5
116
330
6B
100
AcDbEntity
  8
0
 62
     3
100
AcDbCircle
 10
413.8139909999998
 20
447.6597159999998
 30
0.0
 40
63.0
100
AcDbArc
 50
261.689988
 51
278.310012
  0
ARC
  5
117
330
6B
100
AcDbEntity
  8
0
 62
     3
100
AcDbCircle
 10
413.8139909999998
 20
330.0597160000001
 30
0.0
 40
62.37
100
AcDbArc
 50
81.689988
 51
98.31001200000001
  0
ARC
  5
118
330
6B
100
AcDbEntity
  8
0
 62
     3
100
AcDbCircle
 10
413.8139909999998
 20
447.6597159999998
 30
0.0
 40
62.37
100
AcDbArc
 50
261.689988
 51
278.310012
  0
ARC
  5
119
330
6B
100
AcDbEntity
  8
0
 62
     3
100
AcDbCircle
 10
419.155787
 20
411.087775
 30
0.0
 40
25.41
100
AcDbArc
 50
278.310012
 51
290.494285
  0
ARC
  5
11A
330
6B
100
AcDbEntity
  8
0
 62
     3
100
AcDbCircle
 10
419.155787
 20
366.631656
 30
0.0
 40
25.41
100
AcDbArc
 50
69.50571500000001
 51
81.689988
  0
ARC
  5
11B
330
6B
100
AcDbEntity
  8
0
 62
     3
100
AcDbCircle
 10
427.463991
 20
388.859716
 30
0.0
 40
1.679999999999999
100
AcDbArc
 50
290.494285
 51
69.50571500000001
  0
ARC
  5
11C
330
6B
100
AcDbEntity
  8
0
 62
     3
100
AcDbCircle
 10
400.1639909999998
 20
388.859716
 30
0.0
 40
1.679999999999999
100
AcDbArc
 50
110.494285
 51
249.505715
  0
ARC
  5
11D
330
6B
100
AcDbEntity
  8
0
 62
     3
100
AcDbCircle
 10
408.472195
 20
366.631656
 30
0.0
 40
25.41
100
AcDbArc
 50
98.31001200000001
 51
110.494285
  0
ARC
  5
11E
330
6B
100
AcDbEntity
  8
0
 62
     3
100
AcDbCircle
 10
408.472195
 20
411.087775
 30
0.0
 40
25.41
100
AcDbArc
 50
249.505715
 51
261.689988
  0
LINE
  5
11F
330
6B
100
AcDbEntity
  8
0
 62
     2
100
AcDbLine
 10
418.423952
 20
386.782839
 30
0.0
 11
416.49444
 21
386.782839
 31
0.0
  0
LINE
  5
120
330
6B
100
AcDbEntity
  8
0
 62
     2
100
AcDbLine
 10
418.423952
 20
386.9944
 30
0.0
 11
418.423952
 21
386.782839
 31
0.0
  0
LINE
  5
121
330
6B
100
AcDbEntity
  8
0
 62
     2
100
AcDbLine
 10
416.2874829999998
 20
390.936493
 30
0.0
 11
414.3352199999998
 21
390.936493
 31
0.0
  0
LINE
  5
122
330
6B
100
AcDbEntity
  8
0
 62
     2
100
AcDbLine
 10
416.2874829999998
 20
390.936493
 30
0.0
 11
416.2874829999998
 21
390.725031
 31
0.0
  0
LINE
  5
123
330
6B
100
AcDbEntity
  8
0
 62
     2
100
AcDbLine
 10
416.2874829999998
 20
386.9944
 30
0.0
 11
416.2874829999998
 21
386.782741
 31
0.0
  0
LINE
  5
124
330
6B
100
AcDbEntity
  8
0
 62
     2
100
AcDbLine
 10
416.2874829999998
 20
386.782741
 30
0.0
 11
414.3352199999998
 21
386.782741
 31
0.0
  0
LINE
  5
125
330
6B
100
AcDbEntity
  8
0
 62
     2
100
AcDbLine
 10
418.423952
 20
390.936592
 30
0.0
 11
418.423952
 21
390.725031
 31
0.0
  0
LINE
  5
126
330
6B
100
AcDbEntity
  8
0
 62
     2
100
AcDbLine
 10
418.423952
 20
390.936592
 30
0.0
 11
416.49444
 21
390.936592
 31
0.0
  0
LINE
  5
127
330
6B
100
AcDbEntity
  8
0
 62
     2
100
AcDbLine
 10
416.49444
 20
390.936592
 30
0.0
 11
416.49444
 21
390.725031
 31
0.0
  0
LINE
  5
128
330
6B
100
AcDbEntity
  8
0
 62
     2
100
AcDbLine
 10
418.6383099999998
 20
386.9944
 30
0.0
 11
418.6383099999998
 21
386.782839
 31
0.0
  0
LINE
  5
129
330
6B
100
AcDbEntity
  8
0
 62
     2
100
AcDbLine
 10
420.622611
 20
386.782839
 30
0.0
 11
418.6383099999998
 21
386.782839
 31
0.0
  0
LINE
  5
12A
330
6B
100
AcDbEntity
  8
0
 62
     2
100
AcDbLine
 10
420.132074
 20
390.268822
 30
0.0
 11
420.132074
 21
387.450609
 31
0.0
  0
LINE
  5
12B
330
6B
100
AcDbEntity
  8
0
 62
     2
100
AcDbLine
 10
420.132074
 20
387.450609
 30
0.0
 11
420.322123
 21
387.450609
 31
0.0
  0
ARC
  5
12C
330
6B
100
AcDbEntity
  8
0
 62
     2
100
AcDbCircle
 10
419.350337
 20
388.859716
 30
0.0
 40
1.711709999999999
100
AcDbArc
 50
304.591955
 51
55.408045
  0
LINE
  5
12D
330
6B
100
AcDbEntity
  8
0
 62
     2
100
AcDbLine
 10
420.622611
 20
390.936592
 30
0.0
 11
418.6383099999998
 21
390.936592
 31
0.0
  0
LINE
  5
12E
330
6B
100
AcDbEntity
  8
0
 62
     2
100
AcDbLine
 10
418.6383099999998
 20
390.936592
 30
0.0
 11
418.6383099999998
 21
390.725031
 31
0.0
  0
LINE
  5
12F
330
6B
100
AcDbEntity
  8
0
 62
     2
100
AcDbLine
 10
416.49444
 20
386.9944
 30
0.0
 11
416.49444
 21
386.782839
 31
0.0
  0
LINE
  5
130
330
6B
100
AcDbEntity
  8
0
 62
     2
100
AcDbLine
 10
420.132074
 20
390.268822
 30
0.0
 11
420.322123
 21
390.268822
 31
0.0
  0
LINE
  5
131
330
6B
100
AcDbEntity
  8
0
 62
     2
100
AcDbLine
 10
408.488914
 20
386.9944
 30
0.0
 11
408.4889109999998
 21
386.782819
 31
0.0
  0
LINE
  5
132
330
6B
100
AcDbEntity
  8
0
 62
     2
100
AcDbLine
 10
406.559399
 20
386.782859
 30
0.0
 11
408.4889109999998
 21
386.782825
 31
0.0
  0
LINE
  5
133
330
6B
100
AcDbEntity
  8
0
 62
     2
100
AcDbLine
 10
402.263017
 20
386.782839
 30
0.0
 11
403.802282
 21
386.782839
 31
0.0
  0
ARC
  5
134
330
6B
100
AcDbEntity
  8
0
 62
     2
100
AcDbCircle
 10
397.281074
 20
388.908622
 30
0.0
 40
14.713566
100
AcDbArc
 50
353.866006
 51
357.694034
  0
LINE
  5
135
330
6B
100
AcDbEntity
  8
0
 62
     2
100
AcDbLine
 10
410.9976539999998
 20
388.320255
 30
0.0
 11
411.982725
 21
388.31661
 31
0.0
  0
LINE
  5
178
330
6B
100
AcDbEntity
  8
0
 62
     2
100
AcDbLine
 10
411.001633
 20
389.395469
 30
0.0
 11
411.9867029999999
 21
389.3918240000002
 31
0.0
  0
ARC
  5
179
330
6B
100
AcDbEntity
  8
0
 62
     2
100
AcDbCircle
 10
397.281074
 20
388.908622
 30
0.0
 40
14.713566
100
AcDbArc
 50
1.881965999999999
 51
5.709994
  0
LINE
  5
17A
330
6B
100
AcDbEntity
  8
0
 62
     2
100
AcDbLine
 10
408.4889829999998
 20
390.936572
 30
0.0
 11
408.488979
 21
390.725031
 31
0.0
  0
LINE
  5
17B
330
6B
100
AcDbEntity
  8
0
 62
     2
100
AcDbLine
 10
406.559471
 20
390.9366120000001
 30
0.0
 11
408.4889829999998
 21
390.936578
 31
0.0
  0
LINE
  5
17C
330
6B
100
AcDbEntity
  8
0
 62
     2
100
AcDbLine
 10
406.5594029999998
 20
386.9944
 30
0.0
 11
406.559399
 21
386.782859
 31
0.0
  0
LINE
  5
17D
330
6B
100
AcDbEntity
  8
0
 62
     2
100
AcDbLine
 10
406.559471
 20
390.9366120000001
 30
0.0
 11
406.559468
 21
390.725031
 31
0.0
  0
LINE
  5
17E
330
6B
100
AcDbEntity
  8
0
 62
     2
100
AcDbLine
 10
403.802282
 20
386.9944
 30
0.0
 11
403.802282
 21
386.782839
 31
0.0
  0
LINE
  5
17F
330
6B
100
AcDbEntity
  8
0
 62
     2
100
AcDbLine
 10
403.3665339999997
 20
389.218727
 30
0.0
 11
404.8889639999998
 21
386.782839
 31
0.0
  0
LINE
  5
180
330
6B
100
AcDbEntity
  8
0
 62
     2
100
AcDbLine
 10
404.8889639999998
 20
386.782839
 30
0.0
 11
405.908397
 21
386.782839
 31
0.0
  0
LINE
  5
181
330
6B
100
AcDbEntity
  8
0
 62
     2
100
AcDbLine
 10
406.344145
 20
390.936592
 30
0.0
 11
406.344145
 21
390.725031
 31
0.0
  0
LINE
  5
182
330
6B
100
AcDbEntity
  8
0
 62
     2
100
AcDbLine
 10
404.80488
 20
390.936592
 30
0.0
 11
406.344145
 21
390.936592
 31
0.0
  0
LINE
  5
183
330
6B
100
AcDbEntity
  8
0
 62
     2
100
AcDbLine
 10
404.80488
 20
390.936592
 30
0.0
 11
404.80488
 21
390.725031
 31
0.0
  0
LINE
  5
184
330
6B
100
AcDbEntity
  8
0
 62
     2
100
AcDbLine
 10
405.2406279999998
 20
389.055226
 30
0.0
 11
404.005981
 21
390.936592
 31
0.0
  0
LINE
  5
185
330
6B
100
AcDbEntity
  8
0
 62
     2
100
AcDbLine
 10
402.263017
 20
390.936592
 30
0.0
 11
404.005981
 21
390.936592
 31
0.0
  0
LINE
  5
186
330
6B
100
AcDbEntity
  8
0
 62
     2
100
AcDbLine
 10
412.179231
 20
390.936493
 30
0.0
 11
414.1314939999999
 21
390.936493
 31
0.0
  0
LINE
  5
187
330
6B
100
AcDbEntity
  8
0
 62
     2
100
AcDbLine
 10
412.179231
 20
390.725031
 30
0.0
 11
412.179231
 21
390.936493
 31
0.0
  0
LINE
  5
188
330
6B
100
AcDbEntity
  8
0
 62
     2
100
AcDbLine
 10
412.179231
 20
386.782741
 30
0.0
 11
412.179231
 21
386.9944
 31
0.0
  0
LINE
  5
189
330
6B
100
AcDbEntity
  8
0
 62
     2
100
AcDbLine
 10
412.179231
 20
386.782741
 30
0.0
 11
414.1314939999999
 21
386.782741
 31
0.0
  0
LINE
  5
18A
330
6B
100
AcDbEntity
  8
0
 62
     2
100
AcDbLine
 10
414.3352199999998
 20
386.9944
 30
0.0
 11
414.3352199999998
 21
386.782741
 31
0.0
  0
LINE
  5
18B
330
6B
100
AcDbEntity
  8
0
 62
     2
100
AcDbLine
 10
414.1314939999999
 20
386.9944
 30
0.0
 11
414.1314939999999
 21
386.782741
 31
0.0
  0
LINE
  5
18C
330
6B
100
AcDbEntity
  8
0
 62
     2
100
AcDbLine
 10
414.1314939999999
 20
390.725031
 30
0.0
 11
414.1314939999999
 21
390.936493
 31
0.0
  0
LINE
  5
18D
330
6B
100
AcDbEntity
  8
0
 62
     2
100
AcDbLine
 10
414.3352199999998
 20
390.725031
 30
0.0
 11
414.3352199999998
 21
390.936493
 31
0.0
  0
LINE
  5
18E
330
6B
100
AcDbEntity
  8
0
 62
     2
100
AcDbLine
 10
402.263017
 20
386.9944
 30
0.0
 11
402.263017
 21
386.782839
 31
0.0
  0
LINE
  5
18F
330
6B
100
AcDbEntity
  8
0
 62
     2
100
AcDbLine
 10
402.263017
 20
390.936592
 30
0.0
 11
402.263017
 21
390.725031
 31
0.0
  0
ARC
  5
190
330
6B
100
AcDbEntity
  8
0
 62
     2
100
AcDbCircle
 10
420.832611
 20
389.2954640000001
 30
0.0
 40
1.641127999999999
100
AcDbArc
 50
17.308749
 51
23.765071
  0
ARC
  5
191
330
6B
100
AcDbEntity
  8
0
 62
     2
100
AcDbCircle
 10
419.434337
 20
388.859716
 30
0.0
 40
3.105725999999998
100
AcDbArc
 50
342.691251
 51
17.308566
  0
ARC
  5
192
330
6B
100
AcDbEntity
  8
0
 62
     2
100
AcDbCircle
 10
420.832611
 20
388.423968
 30
0.0
 40
1.641127999999999
100
AcDbArc
 50
336.234929
 51
342.691251
  0
ARC
  5
193
330
6B
100
AcDbEntity
  8
0
 62
     2
100
AcDbCircle
 10
420.622611
 20
389.2954640000001
 30
0.0
 40
1.641127999999999
100
AcDbArc
 50
17.308749
 51
90.0
  0
ARC
  5
194
330
6B
100
AcDbEntity
  8
0
 62
     2
100
AcDbCircle
 10
419.2243369999998
 20
388.859716
 30
0.0
 40
3.105725999999998
100
AcDbArc
 50
342.691251
 51
17.308566
  0
ARC
  5
195
330
6B
100
AcDbEntity
  8
0
 62
     2
100
AcDbCircle
 10
420.622611
 20
388.423968
 30
0.0
 40
1.641127999999999
100
AcDbArc
 50
270.0
 51
342.691251
  0
ARC
  5
196
330
6B
100
AcDbEntity
  8
0
 62
     2
100
AcDbCircle
 10
410.49867
 20
388.859716
 30
0.0
 40
2.076875999999999
100
AcDbArc
 50
46.75287999999999
 51
89.749998
  0
ARC
  5
197
330
6B
100
AcDbEntity
  8
0
 62
     2
100
AcDbCircle
 10
410.49867
 20
388.859716
 30
0.0
 40
2.076875999999999
100
AcDbArc
 50
273.976333
 51
312.82312
  0
ARC
  5
198
330
6B
100
AcDbEntity
  8
0
 62
     2
100
AcDbCircle
 10
421.940478
 20
388.827654
 30
0.0
 40
2.755888999999998
100
AcDbArc
 50
0.6665840000000001
 51
23.903928
  0
ARC
  5
199
330
6B
100
AcDbEntity
  8
0
 62
     2
100
AcDbCircle
 10
425.85604
 20
388.827654
 30
0.0
 40
2.755888999999998
100
AcDbArc
 50
156.096072
 51
179.333416
  0
ARC
  5
19A
330
6B
100
AcDbEntity
  8
0
 62
     2
100
AcDbCircle
 10
421.940478
 20
388.891777
 30
0.0
 40
2.755888999999998
100
AcDbArc
 50
336.096072
 51
359.333416
  0
ARC
  5
19B
330
6B
100
AcDbEntity
  8
0
 62
     2
100
AcDbCircle
 10
425.85604
 20
388.891777
 30
0.0
 40
2.755888999999998
100
AcDbArc
 50
180.666584
 51
203.903928
  0
LINE
  5
19E
330
6B
100
AcDbEntity
  8
0
 62
     3
100
AcDbLine
 10
489.4793009999999
 20
128.60331
 30
0.0
 11
489.4793009999999
 21
151.60331
 31
0.0
  0
LINE
  5
1A0
330
6B
100
AcDbEntity
  8
0
 62
     3
100
AcDbLine
 10
436.4256919999999
 20
121.60331
 30
0.0
 11
436.4256919999999
 21
135.60331
 31
0.0
  0
TEXT
  5
1A2
330
6B
100
AcDbEntity
  8
0
 62
     3
100
AcDbText
 10
465.489619
 20
147.808426
 30
0.0
 40
2.0
  1
A
 41
0.7
100
AcDbText
  0
TEXT
  5
1A3
330
6B
100
AcDbEntity
  8
0
 62
     3
100
AcDbText
 10
468.024906
 20
147.808426
 30
0.0
 40
2.0
  1
P
 41
0.7
100
AcDbText
  0
TEXT
  5
1A4
330
6B
100
AcDbEntity
  8
0
 62
     3
100
AcDbText
 10
470.5601920000001
 20
147.808426
 30
0.0
 40
2.0
  1
P
 41
0.7
100
AcDbText
  0
TEXT
  5
1A5
330
6B
100
AcDbEntity
  8
0
 62
     3
100
AcDbText
 10
473.095478
 20
147.808426
 30
0.0
 40
2.0
  1
D
 41
0.7
100
AcDbText
  0
TEXT
  5
1A6
330
6B
100
AcDbEntity
  8
0
 62
     3
100
AcDbText
 10
478.464161
 20
147.808426
 30
0.0
 40
2.0
  1
C
 41
0.7
100
AcDbText
  0
TEXT
  5
1A7
330
6B
100
AcDbEntity
  8
0
 62
     3
100
AcDbText
 10
480.9994470000001
 20
147.808426
 30
0.0
 40
2.0
  1
H
 41
0.7
100
AcDbText
  0
TEXT
  5
1A8
330
6B
100
AcDbEntity
  8
0
 62
     3
100
AcDbText
 10
483.5347340000001
 20
147.808426
 30
0.0
 40
2.0
  1
C
 41
0.7
100
AcDbText
  0
TEXT
  5
1A9
330
6B
100
AcDbEntity
  8
0
 62
     3
100
AcDbText
 10
486.07002
 20
147.808426
 30
0.0
 40
2.0
  1
K
 41
0.7
100
AcDbText
  0
TEXT
  5
1AA
330
6B
100
AcDbEntity
  8
0
 62
     3
100
AcDbText
 10
491.7439859999998
 20
147.808426
 30
0.0
 40
2.0
  1
DESN
 41
1.216762999999998
100
AcDbText
  0
TEXT
  5
1AB
330
6B
100
AcDbEntity
  8
0
 62
     3
100
AcDbText
 10
406.7376280000001
 20
118.461928
 30
0.0
 40
2.0
  1
NICHIDO IND.CO.LTD
 41
1.274876
100
AcDbText
  0
LINE
  5
1AC
330
6B
100
AcDbEntity
  8
0
 62
     3
100
AcDbLine
 10
417.1206569999999
 20
151.60331
 30
0.0
 11
417.1206569999999
 21
128.60331
 31
0.0
  0
LINE
  5
1AD
330
6B
100
AcDbEntity
  8
0
 62
     3
100
AcDbLine
 10
463.4793009999997
 20
151.60331
 30
0.0
 11
463.479301
 21
111.937587
 31
0.0
  0
LINE
  5
1B2
330
6B
100
AcDbEntity
  8
0
 62
     3
100
AcDbLine
 10
476.4793009999999
 20
151.60331
 30
0.0
 11
476.4793009999999
 21
121.60331
 31
0.0
  0
TEXT
  5
1B3
330
6B
100
AcDbEntity
  8
0
 62
     3
100
AcDbText
 10
464.5917460000001
 20
122.467996
 30
0.0
 40
3.2
  1
作成日
 41
1.017225999999998
100
AcDbText
  0
LINE
  5
1B4
330
6B
100
AcDbEntity
  8
0
 62
     3
100
AcDbLine
 10
515.178665
 20
151.60331
 30
0.0
 11
403.8752220000001
 21
151.60331
 31
0.0
  0
LINE
  5
1B5
330
6B
100
AcDbEntity
  8
0
 62
     3
100
AcDbLine
 10
502.4793009999999
 20
128.60331
 30
0.0
 11
502.4793009999999
 21
151.60331
 31
0.0
  0
TEXT
  5
1B6
330
6B
100
AcDbEntity
  8
0
 62
     3
100
AcDbText
 10
505.8031050000001
 20
147.894244
 30
0.0
 40
1.8
  1
D
 41
0.666667
100
AcDbText
  0
TEXT
  5
1B7
330
6B
100
AcDbEntity
  8
0
 62
     3
100
AcDbText
 10
508.619733
 20
147.894244
 30
0.0
 40
1.8
  1
E
 41
0.666667
100
AcDbText
  0
TEXT
  5
1B8
330
6B
100
AcDbEntity
  8
0
 62
     3
100
AcDbText
 10
511.436361
 20
147.894244
 30
0.0
 40
1.8
  1
F
 41
0.666667
100
AcDbText
  0
TEXT
  5
1B9
330
6B
100
AcDbEntity
  8
0
 62
     3
100
AcDbText
 10
505.8031050000001
 20
143.9016909999999
 30
0.0
 40
3.2
  1
製図
 41
1.076369
100
AcDbText
  0
LINE
  5
1BA
330
6B
100
AcDbEntity
  8
0
 62
     3
100
AcDbLine
 10
403.8752220000001
 20
151.60331
 30
0.0
 11
403.8752220000001
 21
111.937587
 31
0.0
  0
TEXT
  5
1BB
330
6B
100
AcDbEntity
  8
0
 62
     3
100
AcDbText
 10
405.2518749999999
 20
112.270052
 30
0.0
 40
5.0
  1
日動工業株式会社
 41
0.833333
100
AcDbText
  0
LINE
  5
1BC
330
6B
100
AcDbEntity
  8
0
 62
     3
100
AcDbLine
 10
446.7576259999999
 20
135.60331
 30
0.0
 11
446.7576259999999
 21
111.937587
 31
0.0
  0
LINE
  5
1BD
330
6B
100
AcDbEntity
  8
0
 62
     3
100
AcDbLine
 10
446.7576259999999
 20
116.770448
 30
0.0
 11
463.479301
 21
116.770448
 31
0.0
  0
TEXT
  5
1BE
330
6B
100
AcDbEntity
  8
0
 62
     3
100
AcDbText
 10
447.344228
 20
117.586879
 30
0.0
 40
3.2
  1
出図コード
 41
0.8356860000000001
100
AcDbText
  0
LINE
  5
1C0
330
6B
100
AcDbEntity
  8
0
 62
     3
100
AcDbLine
 10
403.8752220000001
 20
121.60331
 30
0.0
 11
515.178665
 21
121.60331
 31
0.0
  0
LINE
  5
1C2
330
6B
100
AcDbEntity
  8
0
 62
     3
100
AcDbLine
 10
403.8752220000001
 20
142.60331
 30
0.0
 11
515.178665
 21
142.60331
 31
0.0
  0
LINE
  5
1C8
330
6B
100
AcDbEntity
  8
0
 62
     3
100
AcDbLine
 10
403.8752220000001
 20
135.60331
 30
0.0
 11
463.479301
 21
135.60331
 31
0.0
  0
LINE
  5
1CE
330
6B
100
AcDbEntity
  8
0
 62
     3
100
AcDbLine
 10
403.8752220000002
 20
128.60331
 30
0.0
 11
515.178665
 21
128.60331
 31
0.0
  0
TEXT
  5
1CF
330
6B
100
AcDbEntity
  8
0
 62
     3
100
AcDbText
 10
447.2116800000002
 20
112.539781
 30
0.0
 40
3.2
  1
ZK-A4Y
 41
0.8112849999999999
100
AcDbText
  0
LINE
  5
1D0
330
6B
100
AcDbEntity
  8
0
 62
     3
100
AcDbLine
 10
335.178665
 20
388.937587
 30
0.0
 11
335.178665
 21
111.937587
 31
0.0
  0
LINE
  5
1D1
330
6B
100
AcDbEntity
  8
0
 62
     3
100
AcDbLine
 10
515.178665
 20
111.937587
 30
0.0
 11
515.178665
 21
388.937587
 31
0.0
  0
LINE
  5
1D2
330
6B
100
AcDbEntity
  8
0
 62
     3
100
AcDbLine
 10
515.178665
 20
111.937587
 30
0.0
 11
335.178665
 21
111.937587
 31
0.0
  0
TEXT
  5
1D7
330
6B
100
AcDbEntity
  8
0
 62
     3
100
AcDbText
 10
405.6926189999999
 20
147.772835
 30
0.0
 40
2.0
  1
CONPONENTS
 41
0.5331600000000001
100
AcDbText
  0
TEXT
  5
1D8
330
6B
100
AcDbEntity
  8
0
 62
     3
100
AcDbText
 10
405.3428929999999
 20
128.840659
 30
0.0
 40
3.0
  1
材
 41
0.833333
100
AcDbText
  0
TEXT
  5
1D9
330
6B
100
AcDbEntity
  8
0
 62
     3
100
AcDbText
 10
412.878535
 20
128.840659
 30
0.0
 40
3.0
  1
質
 41
0.833333
100
AcDbText
  0
TEXT
  5
1DA
330
6B
100
AcDbEntity
  8
0
 62
     3
100
AcDbText
 10
405.4309629999999
 20
139.465183
 30
0.0
 40
2.0
  1
MODEL
 41
1.031072999999999
100
AcDbText
  0
TEXT
  5
1DB
330
6B
100
AcDbEntity
  8
0
 62
     3
100
AcDbText
 10
405.3428929999999
 20
132.522967
 30
0.0
 40
2.0
  1
MATERIAL
 41
0.659278
100
AcDbText
  0
TEXT
  5
1DC
330
6B
100
AcDbEntity
  8
0
 62
     3
100
AcDbText
 10
436.650173
 20
128.840659
 30
0.0
 40
3.0
  1
備
 41
0.833333
100
AcDbText
  0
TEXT
  5
1DD
330
6B
100
AcDbEntity
  8
0
 62
     3
100
AcDbText
 10
443.3831750000002
 20
128.840659
 30
0.0
 40
3.0
  1
考
 41
0.833333
100
AcDbText
  0
TEXT
  5
1DE
330
6B
100
AcDbEntity
  8
0
 62
     3
100
AcDbText
 10
437.0177112002831
 20
132.522967
 30
0.0
 40
2.0
  1
REMARKS
 41
0.675794
100
AcDbText
  0
TEXT
  5
1DF
330
6B
100
AcDbEntity
  8
0
 62
     3
100
AcDbText
 10
406.932622
 20
125.602846
 30
0.0
 40
2.0
  1
3AD
 41
1.42614
100
AcDbText
  0
TEXT
  5
1E0
330
6B
100
AcDbEntity
  8
0
 62
     3
100
AcDbText
 10
416.2436009999999
 20
125.76858
 30
0.0
 40
2.0
  1
ANGLE
 41
1.669883999999998
100
AcDbText
  0
TEXT
  5
1E1
330
6B
100
AcDbEntity
  8
0
 62
     3
100
AcDbText
 10
437.1774880000002
 20
125.391739
 30
0.0
 40
2.0
  1
SCALE
 41
0.7719630000000001
100
AcDbText
  0
TEXT
  5
1E2
330
6B
100
AcDbEntity
  8
0
 62
     3
100
AcDbText
 10
406.6187509999999
 20
121.60331
 30
0.0
 40
3.0
  1
第
 41
0.833333
100
AcDbText
  0
TEXT
  5
1E3
330
6B
100
AcDbEntity
  8
0
 62
     3
100
AcDbText
 10
414.4056009999999
 20
121.60331
 30
0.0
 40
3.0
  1
三
 41
0.833333
100
AcDbText
  0
TEXT
  5
1E4
330
6B
100
AcDbEntity
  8
0
 62
     3
100
AcDbText
 10
422.192451
 20
121.60331
 30
0.0
 40
3.0
  1
角
 41
0.833333
100
AcDbText
  0
TEXT
  5
1E5
330
6B
100
AcDbEntity
  8
0
 62
     3
100
AcDbText
 10
429.9793010000001
 20
121.60331
 30
0.0
 40
3.0
  1
法
 41
0.833333
100
AcDbText
  0
TEXT
  5
1E6
330
6B
100
AcDbEntity
  8
0
 62
     3
100
AcDbText
 10
437.0406929999999
 20
121.891739
 30
0.0
 40
3.0
  1
尺
 41
0.833333
100
AcDbText
  0
TEXT
  5
1E7
330
6B
100
AcDbEntity
  8
0
 62
     3
100
AcDbText
 10
443.773695
 20
121.891739
 30
0.0
 40
3.0
  1
度
 41
0.833333
100
AcDbText
  0
TEXT
  5
1E8
330
6B
100
AcDbEntity
  8
0
 62
     3
100
AcDbText
 10
466.356966
 20
144.061038
 30
0.0
 40
3.0
  1
承認
 41
1.089472999999999
100
AcDbText
  0
TEXT
  5
1E9
330
6B
100
AcDbEntity
  8
0
 62
     3
100
AcDbText
 10
479.5998459999999
 20
144.00331
 30
0.0
 40
3.0
  1
検図
 41
0.931761
100
AcDbText
  0
TEXT
  5
1EA
330
6B
100
AcDbEntity
  8
0
 62
     3
100
AcDbText
 10
492.6002420000001
 20
144.00331
 30
0.0
 40
3.0
  1
設
 41
0.833333
100
AcDbText
  0
TEXT
  5
1EB
330
6B
100
AcDbEntity
  8
0
 62
     3
100
AcDbText
 10
497.090111
 20
144.00331
 30
0.0
 40
3.0
  1
計
 41
0.833333
100
AcDbText
  0
TEXT
  5
1EC
330
6B
100
AcDbEntity
  8
0
 62
     3
100
AcDbText
 10
405.624091
 20
143.2920659999999
 30
0.0
 40
3.0
  1
品
 41
0.833333
100
AcDbText
  0
TEXT
  5
1ED
330
6B
100
AcDbEntity
  8
0
 62
     3
100
AcDbText
 10
413.1597329999999
 20
143.2920659999999
 30
0.0
 40
3.0
  1
名
 41
0.833333
100
AcDbText
  0
TEXT
  5
1EE
330
6B
100
AcDbEntity
  8
0
 62
     3
100
AcDbText
 10
405.4309629999999
 20
135.832923
 30
0.0
 40
3.0
  1
型
 41
0.833333
100
AcDbText
  0
TEXT
  5
1EF
330
6B
100
AcDbEntity
  8
0
 62
     3
100
AcDbText
 10
412.9790540000001
 20
135.832923
 30
0.0
 40
3.0
  1
式
 41
0.833333
100
AcDbText
  0
LINE
  5
1F0
330
6B
100
AcDbEntity
  8
0
 62
     3
100
AcDbLine
 10
430.506328
 20
388.937587
 30
0.0
 11
515.178665
 21
388.937587
 31
0.0
  0
LINE
  5
1F1
330
6B
100
AcDbEntity
  8
0
 62
     3
100
AcDbLine
 10
397.093581
 20
388.937587
 30
0.0
 11
335.178665
 21
388.937587
 31
0.0
  0
LINE
  5
1F2
330
6B
100
AcDbEntity
  8
0
100
AcDbLine
 10
513.4937909999998
 20
374.532197
 30
0.0
 11
515.178665
 21
374.532197
 31
0.0
  0
LINE
  5
1F3
330
6B
100
AcDbEntity
  8
0
100
AcDbLine
 10
441.684098
 20
384.432197
 30
0.0
 11
441.684098
 21
369.582197
 31
0.0
  0
LINE
  5
1F4
330
6B
100
AcDbEntity
  8
0
100
AcDbLine
 10
505.2452589999998
 20
374.532197
 30
0.0
 11
431.578665
 21
374.532197
 31
0.0
  0
LINE
  5
1F5
330
6B
100
AcDbEntity
  8
0
100
AcDbLine
 10
503.58114
 20
384.432197
 30
0.0
 11
503.58114
 21
369.582197
 31
0.0
  0
LINE
  5
1F6
330
6B
100
AcDbEntity
  8
0
100
AcDbLine
 10
459.2894239999998
 20
384.432197
 30
0.0
 11
459.2894239999998
 21
369.582197
 31
0.0
  0
LINE
  5
1F7
330
6B
100
AcDbEntity
  8
0
100
AcDbLine
 10
513.4937909999998
 20
374.532197
 30
0.0
 11
505.2452589999998
 21
374.532197
 31
0.0
  0
LINE
  5
1F8
330
6B
100
AcDbEntity
  8
0
100
AcDbLine
 10
431.578665
 20
379.482197
 30
0.0
 11
515.178665
 21
379.482197
 31
0.0
  0
TEXT
  5
1F9
330
6B
100
AcDbEntity
  8
0
 62
     3
100
AcDbText
 10
448.744282
 20
122.491307
 30
0.0
 40
3.2
  1
1/2
  7
高3.2
100
AcDbText
  0
TEXT
  5
1FA
330
6B
100
AcDbEntity
  8
0
 62
     3
100
AcDbText
 10
449.625986
 20
129.156359
 30
0.0
 40
3.2
  1
交換球
  7
高3.2
100
AcDbText
  0
LINE
  5
1FB
330
6B
100
AcDbEntity
  8
0
 62
     3
100
AcDbLine
 10
489.4793009999999
 20
151.60331
 30
0.0
 11
489.4793009999999
 21
157.60331
 31
0.0
  0
LINE
  5
1FC
330
6B
100
AcDbEntity
  8
0
 62
     3
100
AcDbLine
 10
463.479301
 20
151.60331
 30
0.0
 11
463.479301
 21
157.60331
 31
0.0
  0
LINE
  5
1FD
330
6B
100
AcDbEntity
  8
0
 62
     3
100
AcDbLine
 10
515.1786650000001
 20
157.60331
 30
0.0
 11
463.479301
 21
157.60331
 31
0.0
  0
TEXT
  5
1FE
330
6B
100
AcDbEntity
  8
0
 62
     3
100
AcDbText
 10
469.4748999999999
 20
152.399659
 30
0.0
 40
4.5
  1
コード
  7
高4.5
100
AcDbText
  0
TEXT
  5
1FF
330
6B
100
AcDbEntity
  8
0
 62
     3
100
AcDbText
 10
480.0628500000001
 20
122.377726
 30
0.0
 40
3.2
  1
2008.09.18
  7
高3.2
100
AcDbText
  0
LINE
  5
200
330
6B
100
AcDbEntity
  8
0
 62
     3
100
AcDbLine
 10
438.21232
 20
222.612339
 30
0.0
 11
438.21232
 21
173.612339
 31
0.0
  0
TEXT
  5
201
330
6B
100
AcDbEntity
  8
0
 62
     3
100
AcDbText
 10
450.36233
 20
225.066321
 30
0.0
 40
4.5
  1
主　　　仕　　　様
  7
高4.5
100
AcDbText
  0
TEXT
  5
202
330
6B
100
AcDbEntity
  8
0
 62
     3
100
AcDbText
 10
440.21232
 20
216.612339
 30
0.0
 40
4.5
  1
型　　式
  7
高4.5
100
AcDbText
  0
TEXT
  5
203
330
6B
100
AcDbEntity
  8
0
 62
     3
100
AcDbText
 10
440.21232
 20
209.612339
 30
0.0
 40
4.5
  1
定格電圧
  7
高4.5
100
AcDbText
  0
TEXT
  5
204
330
6B
100
AcDbEntity
  8
0
 62
     3
100
AcDbText
 10
440.21232
 20
202.612339
 30
0.0
 40
4.5
  1
消費電力
  7
高4.5
100
AcDbText
  0
TEXT
  5
205
330
6B
100
AcDbEntity
  8
0
 62
     3
100
AcDbText
 10
440.21232
 20
188.612339
 30
0.0
 40
4.5
  1
寿　　命
  7
高4.5
100
AcDbText
  0
TEXT
  5
206
330
6B
100
AcDbEntity
  8
0
 62
     3
100
AcDbText
 10
440.21232
 20
181.612339
 30
0.0
 40
4.5
  1
口　　金
  7
高4.5
100
AcDbText
  0
TEXT
  5
207
330
6B
100
AcDbEntity
  8
0
 62
     3
100
AcDbText
 10
440.21232
 20
174.612339
 30
0.0
 40
4.5
  1
質　　量
  7
高4.5
100
AcDbText
  0
LINE
  5
208
330
6B
100
AcDbEntity
  8
0
 62
     3
100
AcDbLine
 10
509.706632
 20
173.612339
 30
0.0
 11
509.706632
 21
222.612339
 31
0.0
  0
LINE
  5
209
330
6B
100
AcDbEntity
  8
0
100
AcDbLine
 10
462.9484114215934
 20
222.6123390000001
 30
0.0
 11
462.9484114215934
 21
173.612339
 31
0.0
  0
LINE
  5
20A
330
6B
100
AcDbEntity
  8
0
100
AcDbLine
 10
450.36233
 20
224.066321
 30
0.0
 11
498.0255365442642
 21
224.066321
 31
0.0
  0
TEXT
  5
20B
330
6B
100
AcDbEntity
  8
0
 62
     3
100
AcDbText
 10
440.21232
 20
195.612339
 30
0.0
 40
4.5
  1
全光束
  7
高4.5
100
AcDbText
  0
TEXT
  5
20C
330
6B
100
AcDbEntity
  8
0
 62
     3
100
AcDbText
 10
419.4198557441883
 20
144.061583
 30
0.0
 40
4.5
  1
メタルハライドライト
 41
0.8
  7
高4.5
100
AcDbText
  0
LINE
  5
20D
330
6B
100
AcDbEntity
  8
0
100
AcDbLine
 10
436.396369
 20
378.742952
 30
0.0
 11
434.496369
 21
375.452056
 31
0.0
  0
LINE
  5
20E
330
6B
100
AcDbEntity
  8
0
100
AcDbLine
 10
436.396369
 20
378.742952
 30
0.0
 11
438.296369
 21
375.452056
 31
0.0
  0
LINE
  5
20F
330
6B
100
AcDbEntity
  8
0
100
AcDbLine
 10
434.496369
 20
375.452056
 30
0.0
 11
438.296369
 21
375.452056
 31
0.0
  0
LINE
  5
210
330
6B
100
AcDbEntity
  8
0
100
AcDbLine
 10
436.396369
 20
373.5867419999999
 30
0.0
 11
434.496369
 21
370.2958450000001
 31
0.0
  0
LINE
  5
211
330
6B
100
AcDbEntity
  8
0
100
AcDbLine
 10
436.396369
 20
373.5867419999999
 30
0.0
 11
438.296369
 21
370.2958450000001
 31
0.0
  0
LINE
  5
212
330
6B
100
AcDbEntity
  8
0
100
AcDbLine
 10
434.496369
 20
370.2958450000001
 30
0.0
 11
438.296369
 21
370.2958450000001
 31
0.0
  0
LINE
  5
213
330
6B
100
AcDbEntity
  8
0
100
AcDbLine
 10
417.859295
 20
183.442132
 30
0.0
 11
417.859295
 21
182.174183
 31
0.0
  0
LINE
  5
214
330
6B
100
AcDbEntity
  8
0
100
AcDbLine
 10
398.359295
 20
183.442132
 30
0.0
 11
398.359295
 21
182.942132
 31
0.0
  0
LINE
  5
215
330
6B
100
AcDbEntity
  8
0
100
AcDbLine
 10
411.609295
 20
163.942132
 30
0.0
 11
404.609295
 21
163.942132
 31
0.0
  0
LINE
  5
216
330
6B
100
AcDbEntity
  8
0
100
AcDbLine
 10
404.609295
 20
161.442132
 30
0.0
 11
411.609295
 21
161.442132
 31
0.0
  0
LINE
  5
217
330
6B
100
AcDbEntity
  8
0
100
AcDbLine
 10
411.609295
 20
163.942132
 30
0.0
 11
411.609295
 21
161.442132
 31
0.0
  0
LINE
  5
218
330
6B
100
AcDbEntity
  8
0
100
AcDbLine
 10
404.609295
 20
163.942132
 30
0.0
 11
404.609295
 21
161.442132
 31
0.0
  0
ARC
  5
219
330
6B
100
AcDbEntity
  8
0
100
AcDbCircle
 10
408.109295
 20
173.442132
 30
0.0
 40
12.5
100
AcDbArc
 50
253.739795
 51
286.260205
  0
LINE
  5
21A
330
6B
100
AcDbEntity
  8
0
100
AcDbLine
 10
411.609295
 20
163.942132
 30
0.0
 11
414.609295
 21
166.942132
 31
0.0
  0
LINE
  5
21B
330
6B
100
AcDbEntity
  8
0
100
AcDbLine
 10
404.609295
 20
163.942132
 30
0.0
 11
401.6092949999999
 21
166.942132
 31
0.0
  0
LINE
  5
21C
330
6B
100
AcDbEntity
  8
0
100
AcDbLine
 10
401.6092949999999
 20
166.942132
 30
0.0
 11
414.609295
 21
166.942132
 31
0.0
  0
ARC
  5
21D
330
6B
100
AcDbEntity
  8
0
100
AcDbCircle
 10
417.859295
 20
180.442132
 30
0.0
 40
1.0
100
AcDbArc
 50
120.0
 51
250.528779
  0
ARC
  5
21E
330
6B
100
AcDbEntity
  8
0
100
AcDbCircle
 10
417.859295
 20
177.442132
 30
0.0
 40
1.0
100
AcDbArc
 50
109.471221
 51
250.528779
  0
ARC
  5
21F
330
6B
100
AcDbEntity
  8
0
100
AcDbCircle
 10
417.859295
 20
174.442132
 30
0.0
 40
1.0
100
AcDbArc
 50
109.471221
 51
250.528779
  0
ARC
  5
220
330
6B
100
AcDbEntity
  8
0
100
AcDbCircle
 10
417.859295
 20
171.442132
 30
0.0
 40
1.0
100
AcDbArc
 50
109.471221
 51
250.528779
  0
ARC
  5
221
330
6B
100
AcDbEntity
  8
0
100
AcDbCircle
 10
417.859295
 20
168.442132
 30
0.0
 40
1.0
100
AcDbArc
 50
109.471221
 51
189.73561
  0
ARC
  5
222
330
6B
100
AcDbEntity
  8
0
100
AcDbCircle
 10
398.359295
 20
181.942132
 30
0.0
 40
1.0
100
AcDbArc
 50
289.471221
 51
90.0
  0
ARC
  5
223
330
6B
100
AcDbEntity
  8
0
100
AcDbCircle
 10
398.359295
 20
178.942132
 30
0.0
 40
1.0
100
AcDbArc
 50
289.471221
 51
70.528779
  0
ARC
  5
224
330
6B
100
AcDbEntity
  8
0
100
AcDbCircle
 10
398.359295
 20
175.942132
 30
0.0
 40
1.0
100
AcDbArc
 50
289.471221
 51
70.528779
  0
ARC
  5
225
330
6B
100
AcDbEntity
  8
0
100
AcDbCircle
 10
398.359295
 20
172.942132
 30
0.0
 40
1.0
100
AcDbArc
 50
289.471221
 51
70.528779
  0
ARC
  5
226
330
6B
100
AcDbEntity
  8
0
100
AcDbCircle
 10
398.359295
 20
169.942132
 30
0.0
 40
1.0
100
AcDbArc
 50
289.471221
 51
70.528779
  0
LINE
  5
227
330
6B
100
AcDbEntity
  8
0
100
AcDbLine
 10
417.859295
 20
179.027918
 30
0.0
 11
417.859295
 21
178.856346
 31
0.0
  0
LINE
  5
228
330
6B
100
AcDbEntity
  8
0
100
AcDbLine
 10
417.859295
 20
176.027918
 30
0.0
 11
417.859295
 21
175.856346
 31
0.0
  0
LINE
  5
229
330
6B
100
AcDbEntity
  8
0
100
AcDbLine
 10
417.859295
 20
173.027918
 30
0.0
 11
417.859295
 21
172.856346
 31
0.0
  0
LINE
  5
22A
330
6B
100
AcDbEntity
  8
0
100
AcDbLine
 10
417.859295
 20
170.027918
 30
0.0
 11
417.859295
 21
169.856346
 31
0.0
  0
LINE
  5
22B
330
6B
100
AcDbEntity
  8
0
100
AcDbLine
 10
416.873696
 20
167.290501
 30
0.0
 11
414.609295
 21
166.942132
 31
0.0
  0
LINE
  5
22C
330
6B
100
AcDbEntity
  8
0
100
AcDbLine
 10
398.359295
 20
168.527918
 30
0.0
 11
398.359295
 21
168.356346
 31
0.0
  0
LINE
  5
22D
330
6B
100
AcDbEntity
  8
0
100
AcDbLine
 10
398.359295
 20
171.527918
 30
0.0
 11
398.359295
 21
171.356346
 31
0.0
  0
LINE
  5
22E
330
6B
100
AcDbEntity
  8
0
100
AcDbLine
 10
398.359295
 20
174.527918
 30
0.0
 11
398.359295
 21
174.356346
 31
0.0
  0
LINE
  5
22F
330
6B
100
AcDbEntity
  8
0
100
AcDbLine
 10
398.359295
 20
177.527918
 30
0.0
 11
398.359295
 21
177.356346
 31
0.0
  0
LINE
  5
230
330
6B
100
AcDbEntity
  8
0
100
AcDbLine
 10
398.359295
 20
180.527918
 30
0.0
 11
398.359295
 21
180.356346
 31
0.0
  0
ARC
  5
231
330
6B
100
AcDbEntity
  8
0
100
AcDbCircle
 10
416.859295
 20
182.174183
 30
0.0
 40
1.0
100
AcDbArc
 50
300.0
 51
0.0
  0
ARC
  5
232
330
6B
100
AcDbEntity
  8
0
100
AcDbCircle
 10
417.359295
 20
179.027918
 30
0.0
 40
0.5
100
AcDbArc
 50
0.0
 51
70.528779
  0
ARC
  5
233
330
6B
100
AcDbEntity
  8
0
100
AcDbCircle
 10
417.359295
 20
178.856346
 30
0.0
 40
0.5
100
AcDbArc
 50
289.471221
 51
0.0
  0
ARC
  5
234
330
6B
100
AcDbEntity
  8
0
100
AcDbCircle
 10
398.8592950000001
 20
180.527918
 30
0.0
 40
0.5
100
AcDbArc
 50
109.471221
 51
180.0
  0
ARC
  5
235
330
6B
100
AcDbEntity
  8
0
100
AcDbCircle
 10
398.8592950000001
 20
180.356346
 30
0.0
 40
0.5
100
AcDbArc
 50
180.0
 51
250.528779
  0
ARC
  5
236
330
6B
100
AcDbEntity
  8
0
100
AcDbCircle
 10
398.8592950000001
 20
177.527918
 30
0.0
 40
0.5
100
AcDbArc
 50
109.471221
 51
180.0
  0
ARC
  5
237
330
6B
100
AcDbEntity
  8
0
100
AcDbCircle
 10
398.8592950000001
 20
177.356346
 30
0.0
 40
0.5
100
AcDbArc
 50
180.0
 51
250.528779
  0
ARC
  5
238
330
6B
100
AcDbEntity
  8
0
100
AcDbCircle
 10
398.8592950000001
 20
174.527918
 30
0.0
 40
0.5
100
AcDbArc
 50
109.471221
 51
180.0
  0
ARC
  5
239
330
6B
100
AcDbEntity
  8
0
100
AcDbCircle
 10
398.8592950000001
 20
174.356346
 30
0.0
 40
0.5
100
AcDbArc
 50
180.0
 51
250.528779
  0
ARC
  5
23A
330
6B
100
AcDbEntity
  8
0
100
AcDbCircle
 10
398.8592950000001
 20
171.356346
 30
0.0
 40
0.5
100
AcDbArc
 50
180.0
 51
250.528779
  0
ARC
  5
23B
330
6B
100
AcDbEntity
  8
0
100
AcDbCircle
 10
398.8592950000001
 20
171.527918
 30
0.0
 40
0.5
100
AcDbArc
 50
109.471221
 51
180.0
  0
ARC
  5
23C
330
6B
100
AcDbEntity
  8
0
100
AcDbCircle
 10
398.8592950000001
 20
168.527918
 30
0.0
 40
0.5
100
AcDbArc
 50
109.471221
 51
180.0
  0
ARC
  5
23D
330
6B
100
AcDbEntity
  8
0
100
AcDbCircle
 10
398.8592950000001
 20
168.356346
 30
0.0
 40
0.5
100
AcDbArc
 50
180.0
 51
250.528779
  0
ARC
  5
23E
330
6B
100
AcDbEntity
  8
0
100
AcDbCircle
 10
417.359295
 20
169.856346
 30
0.0
 40
0.5
100
AcDbArc
 50
289.471221
 51
0.0
  0
ARC
  5
23F
330
6B
100
AcDbEntity
  8
0
100
AcDbCircle
 10
417.359295
 20
170.027918
 30
0.0
 40
0.5
100
AcDbArc
 50
0.0
 51
70.528779
  0
ARC
  5
240
330
6B
100
AcDbEntity
  8
0
100
AcDbCircle
 10
417.359295
 20
172.856346
 30
0.0
 40
0.5
100
AcDbArc
 50
289.471221
 51
0.0
  0
ARC
  5
241
330
6B
100
AcDbEntity
  8
0
100
AcDbCircle
 10
417.359295
 20
173.027918
 30
0.0
 40
0.5
100
AcDbArc
 50
0.0
 51
70.528779
  0
ARC
  5
242
330
6B
100
AcDbEntity
  8
0
100
AcDbCircle
 10
417.359295
 20
175.856346
 30
0.0
 40
0.5
100
AcDbArc
 50
289.471221
 51
0.0
  0
ARC
  5
243
330
6B
100
AcDbEntity
  8
0
100
AcDbCircle
 10
417.359295
 20
176.027918
 30
0.0
 40
0.5
100
AcDbArc
 50
0.0
 51
70.528779
  0
LINE
  5
244
330
6B
100
AcDbEntity
  8
0
100
AcDbLine
 10
417.359295
 20
181.308157
 30
0.0
 11
398.692628
 21
179.884941
 31
0.0
  0
LINE
  5
245
330
6B
100
AcDbEntity
  8
0
100
AcDbLine
 10
417.359295
 20
182.422539
 30
0.0
 11
398.692628
 21
180.999323
 31
0.0
  0
LINE
  5
246
330
6B
100
AcDbEntity
  8
0
100
AcDbLine
 10
417.359295
 20
179.422539
 30
0.0
 11
398.692628
 21
177.999323
 31
0.0
  0
LINE
  5
247
330
6B
100
AcDbEntity
  8
0
100
AcDbLine
 10
417.359295
 20
178.308157
 30
0.0
 11
398.692628
 21
176.884941
 31
0.0
  0
LINE
  5
248
330
6B
100
AcDbEntity
  8
0
100
AcDbLine
 10
417.359295
 20
176.422539
 30
0.0
 11
398.692628
 21
174.999323
 31
0.0
  0
LINE
  5
249
330
6B
100
AcDbEntity
  8
0
100
AcDbLine
 10
417.359295
 20
175.308157
 30
0.0
 11
398.692628
 21
173.884941
 31
0.0
  0
LINE
  5
24A
330
6B
100
AcDbEntity
  8
0
100
AcDbLine
 10
417.359295
 20
173.422539
 30
0.0
 11
398.692628
 21
171.999323
 31
0.0
  0
LINE
  5
24B
330
6B
100
AcDbEntity
  8
0
100
AcDbLine
 10
417.359295
 20
172.308157
 30
0.0
 11
398.692628
 21
170.884941
 31
0.0
  0
LINE
  5
24C
330
6B
100
AcDbEntity
  8
0
100
AcDbLine
 10
417.359295
 20
170.422539
 30
0.0
 11
398.692628
 21
168.999323
 31
0.0
  0
LINE
  5
24D
330
6B
100
AcDbEntity
  8
0
100
AcDbLine
 10
417.359295
 20
169.308157
 30
0.0
 11
398.692628
 21
167.884941
 31
0.0
  0
LINE
  5
24E
330
6B
100
AcDbEntity
  8
0
100
AcDbLine
 10
416.873696
 20
168.27303
 30
0.0
 11
416.873696
 21
167.290501
 31
0.0
  0
LINE
  5
24F
330
6B
100
AcDbEntity
  8
0
100
AcDbLine
 10
398.692628
 20
167.884941
 30
0.0
 11
401.6092949999999
 21
166.942132
 31
0.0
  0
LINE
  5
250
330
6B
100
AcDbEntity
  8
0
100
AcDbLine
 10
404.9172109999998
 20
183.442132
 30
0.0
 11
398.359295
 21
182.942132
 31
0.0
  0
LINE
  5
251
330
6B
100
AcDbEntity
  8
0
100
AcDbLine
 10
409.109295
 20
314.258622
 30
0.0
 11
409.109295
 21
348.882274
 31
0.0
  0
LINE
  5
252
330
6B
100
AcDbEntity
  8
0
100
AcDbLine
 10
407.109295
 20
314.258622
 30
0.0
 11
407.109295
 21
348.882274
 31
0.0
  0
LINE
  5
253
330
6B
100
AcDbEntity
  8
0
100
AcDbLine
 10
414.359295
 20
257.77867
 30
0.0
 11
409.109295
 21
248.685403
 31
0.0
  0
LINE
  5
254
330
6B
100
AcDbEntity
  8
0
100
AcDbLine
 10
401.859295
 20
257.77867
 30
0.0
 11
407.109295
 21
248.685403
 31
0.0
  0
LINE
  5
255
330
6B
100
AcDbEntity
  8
0
100
AcDbLine
 10
414.359295
 20
305.165356
 30
0.0
 11
414.359295
 21
257.77867
 31
0.0
  0
LINE
  5
256
330
6B
100
AcDbEntity
  8
0
100
AcDbLine
 10
401.859295
 20
305.165356
 30
0.0
 11
401.859295
 21
257.77867
 31
0.0
  0
LINE
  5
257
330
6B
100
AcDbEntity
  8
0
100
AcDbLine
 10
407.109295
 20
314.258622
 30
0.0
 11
401.859295
 21
305.165356
 31
0.0
  0
LINE
  5
258
330
6B
100
AcDbEntity
  8
0
100
AcDbLine
 10
409.109295
 20
314.258622
 30
0.0
 11
414.359295
 21
305.165356
 31
0.0
  0
LINE
  5
259
330
6B
100
AcDbEntity
  8
0
100
AcDbLine
 10
409.109295
 20
248.685403
 30
0.0
 11
409.109295
 21
240.397766
 31
0.0
  0
LINE
  5
25A
330
6B
100
AcDbEntity
  8
0
100
AcDbLine
 10
407.109295
 20
248.685403
 30
0.0
 11
407.109295
 21
240.397766
 31
0.0
  0
LINE
  5
25B
330
6B
100
AcDbEntity
  8
0
100
AcDbLine
 10
409.109295
 20
348.882274
 30
0.0
 11
407.109295
 21
348.882274
 31
0.0
  0
LINE
  5
25C
330
6B
100
AcDbEntity
  8
0
100
AcDbLine
 10
418.109295
 20
240.397766
 30
0.0
 11
418.109295
 21
237.716632
 31
0.0
  0
LINE
  5
25D
330
6B
100
AcDbEntity
  8
0
100
AcDbLine
 10
398.109295
 20
237.716632
 30
0.0
 11
398.109295
 21
240.397766
 31
0.0
  0
LINE
  5
25E
330
6B
100
AcDbEntity
  8
0
100
AcDbLine
 10
398.109295
 20
240.397766
 30
0.0
 11
418.109295
 21
240.397766
 31
0.0
  0
LINE
  5
25F
330
6B
100
AcDbEntity
  8
0
100
AcDbLine
 10
398.109295
 20
237.716632
 30
0.0
 11
418.109295
 21
237.716632
 31
0.0
  0
LINE
  5
260
330
6B
100
AcDbEntity
  8
0
100
AcDbLine
 10
409.109295
 20
237.716632
 30
0.0
 11
409.109295
 21
203.731264
 31
0.0
  0
LINE
  5
261
330
6B
100
AcDbEntity
  8
0
100
AcDbLine
 10
407.109295
 20
237.716632
 30
0.0
 11
407.109295
 21
203.731264
 31
0.0
  0
LINE
  5
262
330
6B
100
AcDbEntity
  8
0
100
AcDbLine
 10
409.109295
 20
203.731264
 30
0.0
 11
407.109295
 21
203.731264
 31
0.0
  0
LINE
  5
263
330
6B
100
AcDbEntity
  8
0
  6
CENTER
100
AcDbLine
 10
408.109295
 20
359.558652
 30
0.0
 11
408.109295
 21
157.822053
 31
0.0
  0
TEXT
  5
264
330
6B
100
AcDbEntity
  8
0
 62
     3
100
AcDbText
 10
464.9484114215934
 20
216.612339
 30
0.0
 40
4.5
  1
M1000LS/BH
  7
高4.5
100
AcDbText
  0
TEXT
  5
265
330
6B
100
AcDbEntity
  8
0
 62
     3
100
AcDbText
 10
464.9484114215934
 20
209.612339
 30
0.0
 40
4.5
  1
110V/200V
  7
高4.5
100
AcDbText
  0
TEXT
  5
266
330
6B
100
AcDbEntity
  8
0
 62
     3
100
AcDbText
 10
464.9484114215934
 20
202.612339
 30
0.0
 40
4.5
  1
1000W
  7
高4.5
100
AcDbText
  0
TEXT
  5
267
330
6B
100
AcDbEntity
  8
0
 62
     3
100
AcDbText
 10
464.9484114215934
 20
195.612339
 30
0.0
 40
4.5
  1
92000Lm
  7
高4.5
100
AcDbText
  0
TEXT
  5
268
330
6B
100
AcDbEntity
  8
0
 62
     3
100
AcDbText
 10
464.9484114215934
 20
188.612339
 30
0.0
 40
4.5
  1
約9000時間
  7
高4.5
100
AcDbText
  0
TEXT
  5
269
330
6B
100
AcDbEntity
  8
0
 62
     3
100
AcDbText
 10
464.9484114215934
 20
181.612339
 30
0.0
 40
4.5
  1
E39
  7
高4.5
100
AcDbText
  0
TEXT
  5
26A
330
6B
100
AcDbEntity
  8
0
 62
     3
100
AcDbText
 10
464.9484114215934
 20
174.612339
 30
0.0
 40
4.5
  1
500g
  7
高4.5
100
AcDbText
  0
TEXT
  5
26B
330
6B
100
AcDbEntity
  8
0
 62
     3
100
AcDbText
 10
420.0768252941996
 20
136.21768
 30
0.0
 40
4.5
  1
M1000LS/BH
  7
高4.5
100
AcDbText
  0
LINE
  5
26C
330
6B
100
AcDbEntity
  8
0
 62
     3
100
AcDbLine
 10
438.21232
 20
222.612339
 30
0.0
 11
509.706632
 21
222.612339
 31
0.0
  0
LINE
  5
26D
330
6B
100
AcDbEntity
  8
0
 62
     3
100
AcDbLine
 10
438.21232
 20
173.612339
 30
0.0
 11
509.706632
 21
173.612339
 31
0.0
  0
LINE
  5
26E
330
6B
100
AcDbEntity
  8
0
100
AcDbLine
 10
438.21232
 20
215.612339
 30
0.0
 11
509.706632
 21
215.612339
 31
0.0
  0
LINE
  5
26F
330
6B
100
AcDbEntity
  8
0
100
AcDbLine
 10
438.21232
 20
208.612339
 30
0.0
 11
509.706632
 21
208.612339
 31
0.0
  0
LINE
  5
270
330
6B
100
AcDbEntity
  8
0
100
AcDbLine
 10
438.21232
 20
201.612339
 30
0.0
 11
509.706632
 21
201.612339
 31
0.0
  0
LINE
  5
271
330
6B
100
AcDbEntity
  8
0
100
AcDbLine
 10
438.21232
 20
194.612339
 30
0.0
 11
509.706632
 21
194.612339
 31
0.0
  0
LINE
  5
272
330
6B
100
AcDbEntity
  8
0
100
AcDbLine
 10
438.21232
 20
187.612339
 30
0.0
 11
509.706632
 21
187.612339
 31
0.0
  0
LINE
  5
273
330
6B
100
AcDbEntity
  8
0
100
AcDbLine
 10
438.21232
 20
180.612339
 30
0.0
 11
509.706632
 21
180.612339
 31
0.0
  0
TEXT
  5
274
330
6B
100
AcDbEntity
  8
0
 62
     3
100
AcDbText
 10
466.6122421756369
 20
113.1666620368498
 30
0.0
 40
6.299999999999998
  1
M1000LS-BH
 41
0.8
  7
高6.3
100
AcDbText
  0
TEXT
  5
275
330
6B
100
AcDbEntity
  8
0
 62
     3
100
AcDbText
 10
491.4664480000001
 20
152.247447
 30
0.0
 40
4.5
  1
52916
  7
高4.5
100
AcDbText
  0
LINE
  5
81C
330
6B
100
AcDbEntity
  8
0
 62
     2
100
AcDbLine
 10
411.001633
 20
389.395469
 30
0.0
 11
410.983005
 21
389.514737
 31
0.0
  0
LINE
  5
81D
330
6B
100
AcDbEntity
  8
0
 62
     2
100
AcDbLine
 10
410.983005
 20
389.514737
 30
0.0
 11
410.960634
 21
389.628942
 31
0.0
  0
LINE
  5
81E
330
6B
100
AcDbEntity
  8
0
 62
     2
100
AcDbLine
 10
410.960634
 20
389.628942
 30
0.0
 11
410.934692
 21
389.737201
 31
0.0
  0
LINE
  5
81F
330
6B
100
AcDbEntity
  8
0
 62
     2
100
AcDbLine
 10
410.934692
 20
389.737201
 30
0.0
 11
410.9053799999998
 21
389.838677
 31
0.0
  0
LINE
  5
820
330
6B
100
AcDbEntity
  8
0
 62
     2
100
AcDbLine
 10
410.9053799999998
 20
389.838677
 30
0.0
 11
410.872924
 21
389.932587
 31
0.0
  0
LINE
  5
821
330
6B
100
AcDbEntity
  8
0
 62
     2
100
AcDbLine
 10
410.872924
 20
389.932587
 30
0.0
 11
410.837575
 21
390.018204
 31
0.0
  0
LINE
  5
822
330
6B
100
AcDbEntity
  8
0
 62
     2
100
AcDbLine
 10
410.837575
 20
390.018204
 30
0.0
 11
410.7996069999998
 21
390.094867
 31
0.0
  0
LINE
  5
823
330
6B
100
AcDbEntity
  8
0
 62
     2
100
AcDbLine
 10
410.7996069999998
 20
390.094867
 30
0.0
 11
410.7593129999998
 21
390.161982
 31
0.0
  0
LINE
  5
824
330
6B
100
AcDbEntity
  8
0
 62
     2
100
AcDbLine
 10
410.7593129999998
 20
390.161982
 30
0.0
 11
410.717004
 21
390.219031
 31
0.0
  0
LINE
  5
825
330
6B
100
AcDbEntity
  8
0
 62
     2
100
AcDbLine
 10
410.717004
 20
390.219031
 30
0.0
 11
410.673008
 21
390.265574
 31
0.0
  0
LINE
  5
826
330
6B
100
AcDbEntity
  8
0
 62
     2
100
AcDbLine
 10
410.673008
 20
390.265574
 30
0.0
 11
410.627664
 21
390.30125
 31
0.0
  0
LINE
  5
827
330
6B
100
AcDbEntity
  8
0
 62
     2
100
AcDbLine
 10
410.627664
 20
390.30125
 30
0.0
 11
410.5813229999998
 21
390.325784
 31
0.0
  0
LINE
  5
828
330
6B
100
AcDbEntity
  8
0
 62
     2
100
AcDbLine
 10
410.5813229999998
 20
390.325784
 30
0.0
 11
410.534343
 21
390.338986
 31
0.0
  0
LINE
  5
829
330
6B
100
AcDbEntity
  8
0
 62
     2
100
AcDbLine
 10
410.534343
 20
390.338986
 30
0.0
 11
410.487087
 21
390.340754
 31
0.0
  0
LINE
  5
82A
330
6B
100
AcDbEntity
  8
0
 62
     2
100
AcDbLine
 10
410.487087
 20
390.340754
 30
0.0
 11
410.4399209999998
 21
390.331074
 31
0.0
  0
LINE
  5
82B
330
6B
100
AcDbEntity
  8
0
 62
     2
100
AcDbLine
 10
410.4399209999998
 20
390.331074
 30
0.0
 11
410.3932089999998
 21
390.310021
 31
0.0
  0
LINE
  5
82C
330
6B
100
AcDbEntity
  8
0
 62
     2
100
AcDbLine
 10
410.3932089999998
 20
390.310021
 30
0.0
 11
410.347312
 21
390.277758
 31
0.0
  0
LINE
  5
82D
330
6B
100
AcDbEntity
  8
0
 62
     2
100
AcDbLine
 10
410.347312
 20
390.277758
 30
0.0
 11
410.3025849999998
 21
390.234535
 31
0.0
  0
LINE
  5
82E
330
6B
100
AcDbEntity
  8
0
 62
     2
100
AcDbLine
 10
410.3025849999998
 20
390.234535
 30
0.0
 11
410.259374
 21
390.180685
 31
0.0
  0
LINE
  5
82F
330
6B
100
AcDbEntity
  8
0
 62
     2
100
AcDbLine
 10
410.259374
 20
390.180685
 30
0.0
 11
410.2180119999998
 21
390.116624
 31
0.0
  0
LINE
  5
830
330
6B
100
AcDbEntity
  8
0
 62
     2
100
AcDbLine
 10
410.2180119999998
 20
390.116624
 30
0.0
 11
410.17882
 21
390.042848
 31
0.0
  0
LINE
  5
831
330
6B
100
AcDbEntity
  8
0
 62
     2
100
AcDbLine
 10
410.17882
 20
390.042848
 30
0.0
 11
410.1421
 21
389.959927
 31
0.0
  0
LINE
  5
832
330
6B
100
AcDbEntity
  8
0
 62
     2
100
AcDbLine
 10
410.1421
 20
389.959927
 30
0.0
 11
410.108136
 21
389.868503
 31
0.0
  0
LINE
  5
833
330
6B
100
AcDbEntity
  8
0
 62
     2
100
AcDbLine
 10
410.108136
 20
389.868503
 30
0.0
 11
410.0771899999998
 21
389.76928
 31
0.0
  0
LINE
  5
834
330
6B
100
AcDbEntity
  8
0
 62
     2
100
AcDbLine
 10
410.0771899999998
 20
389.76928
 30
0.0
 11
410.0495029999998
 21
389.663028
 31
0.0
  0
LINE
  5
835
330
6B
100
AcDbEntity
  8
0
 62
     2
100
AcDbLine
 10
410.0495029999998
 20
389.663028
 30
0.0
 11
410.025287
 21
389.550566
 31
0.0
  0
LINE
  5
836
330
6B
100
AcDbEntity
  8
0
 62
     2
100
AcDbLine
 10
410.025287
 20
389.550566
 30
0.0
 11
410.0047309999998
 21
389.432764
 31
0.0
  0
LINE
  5
837
330
6B
100
AcDbEntity
  8
0
 62
     2
100
AcDbLine
 10
410.0047309999998
 20
389.432764
 30
0.0
 11
409.987992
 21
389.310532
 31
0.0
  0
LINE
  5
838
330
6B
100
AcDbEntity
  8
0
 62
     2
100
AcDbLine
 10
409.987992
 20
389.310532
 30
0.0
 11
409.9751999999998
 21
389.184817
 31
0.0
  0
LINE
  5
839
330
6B
100
AcDbEntity
  8
0
 62
     2
100
AcDbLine
 10
409.9751999999998
 20
389.184817
 30
0.0
 11
409.9664549999998
 21
389.056588
 31
0.0
  0
LINE
  5
83A
330
6B
100
AcDbEntity
  8
0
 62
     2
100
AcDbLine
 10
409.9664549999998
 20
389.056588
 30
0.0
 11
409.961824
 21
388.926838
 31
0.0
  0
LINE
  5
83B
330
6B
100
AcDbEntity
  8
0
 62
     2
100
AcDbLine
 10
409.961824
 20
388.926838
 30
0.0
 11
409.9613419999998
 21
388.7965680000002
 31
0.0
  0
LINE
  5
83C
330
6B
100
AcDbEntity
  8
0
 62
     2
100
AcDbLine
 10
409.9613419999998
 20
388.7965680000002
 30
0.0
 11
409.9650129999998
 21
388.666787
 31
0.0
  0
LINE
  5
83D
330
6B
100
AcDbEntity
  8
0
 62
     2
100
AcDbLine
 10
409.9650129999998
 20
388.666787
 30
0.0
 11
409.972809
 21
388.538497
 31
0.0
  0
LINE
  5
83E
330
6B
100
AcDbEntity
  8
0
 62
     2
100
AcDbLine
 10
409.972809
 20
388.538497
 30
0.0
 11
409.9846699999998
 21
388.41269
 31
0.0
  0
LINE
  5
83F
330
6B
100
AcDbEntity
  8
0
 62
     2
100
AcDbLine
 10
409.9846699999998
 20
388.41269
 30
0.0
 11
410.000504
 21
388.290338
 31
0.0
  0
LINE
  5
840
330
6B
100
AcDbEntity
  8
0
 62
     2
100
AcDbLine
 10
410.000504
 20
388.290338
 30
0.0
 11
410.0201879999998
 21
388.172388
 31
0.0
  0
LINE
  5
841
330
6B
100
AcDbEntity
  8
0
 62
     2
100
AcDbLine
 10
410.0201879999998
 20
388.172388
 30
0.0
 11
410.043571
 21
388.05975
 31
0.0
  0
LINE
  5
842
330
6B
100
AcDbEntity
  8
0
 62
     2
100
AcDbLine
 10
410.043571
 20
388.05975
 30
0.0
 11
410.070471
 21
387.953295
 31
0.0
  0
LINE
  5
843
330
6B
100
AcDbEntity
  8
0
 62
     2
100
AcDbLine
 10
410.070471
 20
387.953295
 30
0.0
 11
410.100681
 21
387.853846
 31
0.0
  0
LINE
  5
844
330
6B
100
AcDbEntity
  8
0
 62
     2
100
AcDbLine
 10
410.100681
 20
387.853846
 30
0.0
 11
410.133968
 21
387.762173
 31
0.0
  0
LINE
  5
845
330
6B
100
AcDbEntity
  8
0
 62
     2
100
AcDbLine
 10
410.133968
 20
387.762173
 30
0.0
 11
410.170073
 21
387.6789819999999
 31
0.0
  0
LINE
  5
846
330
6B
100
AcDbEntity
  8
0
 62
     2
100
AcDbLine
 10
410.170073
 20
387.6789819999999
 30
0.0
 11
410.208718
 21
387.604918
 31
0.0
  0
LINE
  5
847
330
6B
100
AcDbEntity
  8
0
 62
     2
100
AcDbLine
 10
410.208718
 20
387.604918
 30
0.0
 11
410.249605
 21
387.540554
 31
0.0
  0
LINE
  5
848
330
6B
100
AcDbEntity
  8
0
 62
     2
100
AcDbLine
 10
410.249605
 20
387.540554
 30
0.0
 11
410.2924169999998
 21
387.486385
 31
0.0
  0
LINE
  5
849
330
6B
100
AcDbEntity
  8
0
 62
     2
100
AcDbLine
 10
410.2924169999998
 20
387.486385
 30
0.0
 11
410.336822
 21
387.442832
 31
0.0
  0
LINE
  5
84A
330
6B
100
AcDbEntity
  8
0
 62
     2
100
AcDbLine
 10
410.336822
 20
387.442832
 30
0.0
 11
410.382479
 21
387.41023
 31
0.0
  0
LINE
  5
84B
330
6B
100
AcDbEntity
  8
0
 62
     2
100
AcDbLine
 10
410.382479
 20
387.41023
 30
0.0
 11
410.429034
 21
387.388832
 31
0.0
  0
LINE
  5
84C
330
6B
100
AcDbEntity
  8
0
 62
     2
100
AcDbLine
 10
410.429034
 20
387.388832
 30
0.0
 11
410.476127
 21
387.378804
 31
0.0
  0
LINE
  5
84D
330
6B
100
AcDbEntity
  8
0
 62
     2
100
AcDbLine
 10
410.476127
 20
387.378804
 30
0.0
 11
410.5233949999997
 21
387.380222
 31
0.0
  0
LINE
  5
84E
330
6B
100
AcDbEntity
  8
0
 62
     2
100
AcDbLine
 10
410.5233949999997
 20
387.380222
 30
0.0
 11
410.570471
 21
387.393076
 31
0.0
  0
LINE
  5
84F
330
6B
100
AcDbEntity
  8
0
 62
     2
100
AcDbLine
 10
410.570471
 20
387.393076
 30
0.0
 11
410.616993
 21
387.4172660000001
 31
0.0
  0
LINE
  5
850
330
6B
100
AcDbEntity
  8
0
 62
     2
100
AcDbLine
 10
410.616993
 20
387.4172660000001
 30
0.0
 11
410.662599
 21
387.452606
 31
0.0
  0
LINE
  5
851
330
6B
100
AcDbEntity
  8
0
 62
     2
100
AcDbLine
 10
410.662599
 20
387.452606
 30
0.0
 11
410.706939
 21
387.498821
 31
0.0
  0
LINE
  5
852
330
6B
100
AcDbEntity
  8
0
 62
     2
100
AcDbLine
 10
410.706939
 20
387.498821
 30
0.0
 11
410.7496689999998
 21
387.555556
 31
0.0
  0
LINE
  5
853
330
6B
100
AcDbEntity
  8
0
 62
     2
100
AcDbLine
 10
410.7496689999998
 20
387.555556
 30
0.0
 11
410.790459
 21
387.622372
 31
0.0
  0
LINE
  5
854
330
6B
100
AcDbEntity
  8
0
 62
     2
100
AcDbLine
 10
410.790459
 20
387.622372
 30
0.0
 11
410.828993
 21
387.698751
 31
0.0
  0
LINE
  5
855
330
6B
100
AcDbEntity
  8
0
 62
     2
100
AcDbLine
 10
410.828993
 20
387.698751
 30
0.0
 11
410.864974
 21
387.784104
 31
0.0
  0
LINE
  5
856
330
6B
100
AcDbEntity
  8
0
 62
     2
100
AcDbLine
 10
410.864974
 20
387.784104
 30
0.0
 11
410.898124
 21
387.877771
 31
0.0
  0
LINE
  5
857
330
6B
100
AcDbEntity
  8
0
 62
     2
100
AcDbLine
 10
410.898124
 20
387.877771
 30
0.0
 11
410.928186
 21
387.979028
 31
0.0
  0
LINE
  5
858
330
6B
100
AcDbEntity
  8
0
 62
     2
100
AcDbLine
 10
410.928186
 20
387.979028
 30
0.0
 11
410.954929
 21
388.087092
 31
0.0
  0
LINE
  5
859
330
6B
100
AcDbEntity
  8
0
 62
     2
100
AcDbLine
 10
410.954929
 20
388.087092
 30
0.0
 11
410.978145
 21
388.201128
 31
0.0
  0
LINE
  5
85A
330
6B
100
AcDbEntity
  8
0
 62
     2
100
AcDbLine
 10
410.978145
 20
388.201128
 30
0.0
 11
410.9976539999998
 21
388.320255
 31
0.0
  0
LINE
  5
85D
330
6B
100
AcDbEntity
  8
0
100
AcDbLine
 10
398.359295
 20
168.106346
 30
0.0
 11
398.359295
 21
152.471585
 31
0.0
  0
LINE
  5
85E
330
6B
100
AcDbEntity
  8
0
100
AcDbLine
 10
417.859295
 20
169.606346
 30
0.0
 11
417.859295
 21
152.471585
 31
0.0
  0
LINE
  5
85F
330
6B
100
AcDbEntity
  8
0
100
AcDbLine
 10
400.859295
 20
153.721585
 30
0.0
 11
415.359295
 21
153.721585
 31
0.0
  0
LINE
  5
863
330
6B
100
AcDbEntity
  8
0
100
AcDbLine
 10
363.109295
 20
283.692132
 30
0.0
 11
363.109295
 21
365.908986
 31
0.0
  0
LINE
  5
864
330
6B
100
AcDbEntity
  8
0
100
AcDbLine
 10
453.109295
 20
283.692132
 30
0.0
 11
453.109295
 21
365.908986
 31
0.0
  0
LINE
  5
865
330
6B
100
AcDbEntity
  8
0
100
AcDbLine
 10
365.6092950000001
 20
364.658986
 30
0.0
 11
450.609295
 21
364.658986
 31
0.0
  0
LINE
  5
869
330
6B
100
AcDbEntity
  8
0
100
AcDbLine
 10
407.8592949999999
 20
160.942132
 30
0.0
 11
348.84515
 21
160.942132
 31
0.0
  0
LINE
  5
86A
330
6B
100
AcDbEntity
  8
0
100
AcDbLine
 10
407.8592949999999
 20
355.942132
 30
0.0
 11
348.84515
 21
355.942132
 31
0.0
  0
LINE
  5
86B
330
6B
100
AcDbEntity
  8
0
100
AcDbLine
 10
350.09515
 20
163.442132
 30
0.0
 11
350.09515
 21
353.442132
 31
0.0
  0
TEXT
  5
86F
330
6B
100
AcDbEntity
  8
0
  6
Continuous
 62
     4
100
AcDbText
 10
404.109295
 20
154.346585
 30
0.0
 40
3.0
  1
E39
100
AcDbText
  0
LINE
  5
870
330
6B
100
AcDbEntity
  8
0
  6
ByBlock
 62
     0
370
    -2
100
AcDbLine
 10
415.359295
 20
154.3914575
 30
0.0
 11
417.859295
 21
153.721585
 31
0.0
  0
LINE
  5
871
330
6B
100
AcDbEntity
  8
0
  6
ByBlock
 62
     0
370
    -2
100
AcDbLine
 10
417.859295
 20
153.721585
 30
0.0
 11
415.359295
 21
153.0517125
 31
0.0
  0
LINE
  5
872
330
6B
100
AcDbEntity
  8
0
  6
ByBlock
 62
     0
370
    -2
100
AcDbLine
 10
417.859295
 20
153.721585
 30
0.0
 11
415.359295
 21
153.721585
 31
0.0
  0
LINE
  5
873
330
6B
100
AcDbEntity
  8
0
  6
ByBlock
 62
     0
370
    -2
100
AcDbLine
 10
400.859295
 20
153.0517125
 30
0.0
 11
398.359295
 21
153.721585
 31
0.0
  0
LINE
  5
874
330
6B
100
AcDbEntity
  8
0
  6
ByBlock
 62
     0
370
    -2
100
AcDbLine
 10
398.359295
 20
153.721585
 30
0.0
 11
400.859295
 21
154.3914575
 31
0.0
  0
LINE
  5
875
330
6B
100
AcDbEntity
  8
0
  6
ByBlock
 62
     0
370
    -2
100
AcDbLine
 10
398.359295
 20
153.721585
 30
0.0
 11
400.859295
 21
153.721585
 31
0.0
  0
TEXT
  5
876
330
6B
100
AcDbEntity
  8
0
  6
Continuous
 62
     4
100
AcDbText
 10
403.359295
 20
365.283986
 30
0.0
 40
3.0
  1
\U+2205180
100
AcDbText
  0
LINE
  5
877
330
6B
100
AcDbEntity
  8
0
  6
ByBlock
 62
     0
370
    -2
100
AcDbLine
 10
450.609295
 20
365.3288585
 30
0.0
 11
453.109295
 21
364.658986
 31
0.0
  0
LINE
  5
878
330
6B
100
AcDbEntity
  8
0
  6
ByBlock
 62
     0
370
    -2
100
AcDbLine
 10
453.109295
 20
364.658986
 30
0.0
 11
450.609295
 21
363.9891135
 31
0.0
  0
LINE
  5
879
330
6B
100
AcDbEntity
  8
0
  6
ByBlock
 62
     0
370
    -2
100
AcDbLine
 10
453.109295
 20
364.658986
 30
0.0
 11
450.609295
 21
364.658986
 31
0.0
  0
LINE
  5
87A
330
6B
100
AcDbEntity
  8
0
  6
ByBlock
 62
     0
370
    -2
100
AcDbLine
 10
365.6092950000001
 20
363.9891135
 30
0.0
 11
363.109295
 21
364.658986
 31
0.0
  0
LINE
  5
87B
330
6B
100
AcDbEntity
  8
0
  6
ByBlock
 62
     0
370
    -2
100
AcDbLine
 10
363.109295
 20
364.658986
 30
0.0
 11
365.6092950000001
 21
365.3288585
 31
0.0
  0
LINE
  5
87C
330
6B
100
AcDbEntity
  8
0
  6
ByBlock
 62
     0
370
    -2
100
AcDbLine
 10
363.109295
 20
364.658986
 30
0.0
 11
365.6092950000001
 21
364.658986
 31
0.0
  0
TEXT
  5
87D
330
6B
100
AcDbEntity
  8
0
  6
Continuous
 62
     4
100
AcDbText
 10
349.4701499999999
 20
254.6921320000001
 30
0.0
 40
3.0
  1
390
 50
90.0
100
AcDbText
  0
LINE
  5
87E
330
6B
100
AcDbEntity
  8
0
  6
ByBlock
 62
     0
370
    -2
100
AcDbLine
 10
349.4252775
 20
353.442132
 30
0.0
 11
350.09515
 21
355.942132
 31
0.0
  0
LINE
  5
87F
330
6B
100
AcDbEntity
  8
0
  6
ByBlock
 62
     0
370
    -2
100
AcDbLine
 10
350.09515
 20
355.942132
 30
0.0
 11
350.7650225
 21
353.442132
 31
0.0
  0
LINE
  5
880
330
6B
100
AcDbEntity
  8
0
  6
ByBlock
 62
     0
370
    -2
100
AcDbLine
 10
350.09515
 20
355.942132
 30
0.0
 11
350.09515
 21
353.442132
 31
0.0
  0
LINE
  5
881
330
6B
100
AcDbEntity
  8
0
  6
ByBlock
 62
     0
370
    -2
100
AcDbLine
 10
350.7650225
 20
163.442132
 30
0.0
 11
350.09515
 21
160.942132
 31
0.0
  0
LINE
  5
882
330
6B
100
AcDbEntity
  8
0
  6
ByBlock
 62
     0
370
    -2
100
AcDbLine
 10
350.09515
 20
160.942132
 30
0.0
 11
349.4252775
 21
163.442132
 31
0.0
  0
LINE
  5
883
330
6B
100
AcDbEntity
  8
0
  6
ByBlock
 62
     0
370
    -2
100
AcDbLine
 10
350.09515
 20
160.942132
 30
0.0
 11
350.09515
 21
163.442132
 31
0.0
  0
ENDSEC
  0
SECTION
  2
OBJECTS
  0
DICTIONARY
  5
C
330
0
100
AcDbDictionary
281
     1
  3
ACAD_2007HEADERVARS_RT
350
887
  3
ACAD_COLOR
350
62
  3
ACAD_GROUP
350
D
  3
ACAD_LAYOUT
350
61
  3
ACAD_MATERIAL
350
10
  3
ACAD_MLEADERSTYLE
350
65
  3
ACAD_MLINESTYLE
350
5E
  3
ACAD_PLOTSETTINGS
350
60
  3
ACAD_PLOTSTYLENAME
350
E
  3
ACAD_SCALELIST
350
42
  3
ACAD_TABLESTYLE
350
63
  3
ACAD_VISUALSTYLE
350
29
  3
ACDB_RECOMPOSE_DATA
350
885
  3
AcDbVariableDictionary
350
534
  3
DWGPROPS
350
886
  0
DICTIONARY
  5
31C
330
2
100
AcDbDictionary
280
     1
281
     1
  3
ACAD_LAYERSTATES
360
31D
  0
DICTIONARY
  5
530
330
54
100
AcDbDictionary
280
     1
281
     1
  3
ADSK_XREC_LAYER_RECONCILED
360
531
  0
DICTIONARY
  5
85B
330
6B
100
AcDbDictionary
280
     1
281
     1
  3
ACAD_SORTENTS
360
85C
  0
DICTIONARY
  5
887
102
{ACAD_REACTORS
330
C
102
}
330
C
100
AcDbDictionary
281
     1
  3
DIMARCSYM
350
889
  3
DIMFXL
350
888
  3
DIMJOGANG
350
88A
  0
DICTIONARY
  5
62
102
{ACAD_REACTORS
330
C
102
}
330
C
100
AcDbDictionary
281
     1
  0
DICTIONARY
  5
D
102
{ACAD_REACTORS
330
C
102
}
330
C
100
AcDbDictionary
281
     1
  0
DICTIONARY
  5
61
102
{ACAD_REACTORS
330
C
102
}
330
C
100
AcDbDictionary
281
     1
  3
Model
350
6E
  3
レイアウト1
350
6A
  0
DICTIONARY
  5
10
102
{ACAD_REACTORS
330
C
102
}
330
C
100
AcDbDictionary
281
     1
  3
ByBlock
350
19
  3
ByLayer
350
11
  3
Global
350
21
  0
DICTIONARY
  5
65
102
{ACAD_REACTORS
330
C
102
}
330
C
100
AcDbDictionary
281
     1
  3
Standard
350
66
  0
DICTIONARY
  5
5E
102
{ACAD_REACTORS
330
C
102
}
330
C
100
AcDbDictionary
281
     1
  3
Standard
350
5F
  0
DICTIONARY
  5
60
102
{ACAD_REACTORS
330
C
102
}
330
C
100
AcDbDictionary
281
     1
  0
ACDBDICTIONARYWDFLT
  5
E
102
{ACAD_REACTORS
330
C
102
}
330
C
100
AcDbDictionary
281
     1
  3
Normal
350
F
100
AcDbDictionaryWithDefault
340
F
  0
DICTIONARY
  5
42
102
{ACAD_REACTORS
330
C
102
}
330
C
100
AcDbDictionary
281
     1
  3
A0
350
43
  3
A1
350
44
  3
A2
350
45
  3
A3
350
46
  3
A4
350
47
  3
A5
350
48
  3
A6
350
49
  3
A7
350
4A
  3
A8
350
4B
  3
A9
350
4C
  3
B0
350
4D
  3
B1
350
4E
  3
B2
350
4F
  3
B3
350
50
  3
B4
350
51
  3
B5
350
52
  3
B6
350
53
  0
DICTIONARY
  5
63
102
{ACAD_REACTORS
330
C
102
}
330
C
100
AcDbDictionary
281
     1
  3
Standard
350
64
  0
DICTIONARY
  5
29
102
{ACAD_REACTORS
330
C
102
}
330
C
100
AcDbDictionary
281
     1
  3
2dWireframe
350
2F
  3
3dWireframe
350
31B
  3
Basic
350
2E
  3
Brighten
350
35
  3
ColorChange
350
39
  3
Conceptual
350
32
  3
Dim
350
34
  3
EdgeColorOff
350
41
  3
Facepattern
350
38
  3
Flat
350
2A
  3
FlatWithEdges
350
2B
  3
Gouraud
350
2C
  3
GouraudWithEdges
350
2D
  3
Hidden
350
31
  3
JitterOff
350
3F
  3
Linepattern
350
37
  3
OverhangOff
350
40
  3
Realistic
350
33
  3
Shaded
350
3E
  3
Shaded with edges
350
3D
  3
Shades of Gray
350
3A
  3
Sketchy
350
3B
  3
Thicken
350
36
  3
Wireframe
350
30
  3
X-Ray
350
3C
  0
XRECORD
  5
885
102
{ACAD_REACTORS
330
C
102
}
330
C
100
AcDbXrecord
280
     1
 90
        1
330
64
  0
DICTIONARY
  5
534
102
{ACAD_REACTORS
330
C
102
}
330
C
100
AcDbDictionary
281
     1
  3
CANNOSCALE
350
537
  3
CMLEADERSTYLE
350
536
  3
CTABLESTYLE
350
535
  3
DIMASSOC
350
53A
  3
INDEXCTL
350
539
  3
SORTENTS
350
538
  3
XCLIPFRAME
350
7DD
  0
XRECORD
  5
886
102
{ACAD_REACTORS
330
C
102
}
330
C
100
AcDbXrecord
280
     1
  1
DWGPROPS COOKIE
  2

  3

  4

  6

  7

  8
imamura
  9

300
=
301
=
302
=
303
=
304
=
305
=
306
=
307
=
308
=
309
=
 40
0.0378706481481482
 41
2456071.778738889
 42
2456856.876802222
  1

 90
        0
  0
DICTIONARY
  5
31D
102
{ACAD_REACTORS
330
31C
102
}
330
31C
100
AcDbDictionary
281
     1
  0
XRECORD
  5
531
102
{ACAD_REACTORS
330
530
102
}
330
530
100
AcDbXrecord
280
     1
290
     1
  0
SORTENTSTABLE
  5
85C
102
{ACAD_REACTORS
330
85B
102
}
330
85B
100
AcDbSortentsTable
330
6B
331
1F9
  5
25F
331
1E8
  5
24E
331
202
  5
268
331
D2
  5
F9
331
871
  5
DF
331
213
  5
81F
331
E3
  5
10A
331
882
  5
C2
331
224
  5
830
331
F4
  5
11B
331
CB
  5
F2
331
235
  5
841
331
105
  5
12C
331
246
  5
852
331
116
  5
17F
331
257
  5
865
331
81F
  5
1A6
331
268
  5
876
331
178
  5
1F6
331
1B5
  5
22B
331
1A4
  5
21E
331
193
  5
211
331
1D7
  5
23D
331
83E
  5
1D9
331
82D
  5
1B8
331
BD
  5
E4
331
127
  5
190
331
84F
  5
1EA
331
1D8
  5
23E
331
1FA
  5
260
331
1E9
  5
24F
331
850
  5
1EB
331
203
  5
269
331
D3
  5
FA
331
872
  5
E0
331
214
  5
820
331
E4
  5
10B
331
883
  5
C3
331
225
  5
831
331
F5
  5
11C
331
CC
  5
F3
331
236
  5
842
331
106
  5
12D
331
247
  5
853
331
117
  5
180
331
258
  5
866
331
128
  5
191
331
269
  5
877
331
1B6
  5
22C
331
1A5
  5
21F
331
194
  5
212
331
83F
  5
1DA
331
82E
  5
1B9
331
BE
  5
E5
331
179
  5
1F7
331
1C8
  5
237
331
1D9
  5
23F
331
840
  5
1DB
331
1FB
  5
261
331
1EA
  5
250
331
851
  5
1EC
331
204
  5
26A
331
D4
  5
FB
331
873
  5
DB
331
215
  5
821
331
E5
  5
10C
331
226
  5
832
331
F6
  5
11D
331
CD
  5
F4
331
237
  5
843
331
107
  5
12E
331
248
  5
854
331
118
  5
181
331
259
  5
867
331
129
  5
192
331
26A
  5
878
331
17A
  5
1F8
331
1B7
  5
22D
331
1A6
  5
220
331
82F
  5
1BA
331
BF
  5
E6
331
195
  5
213
331
270
  5
87E
331
1B8
  5
22E
331
1DA
  5
240
331
841
  5
1DC
331
830
  5
1BB
331
1EB
  5
251
331
852
  5
1ED
331
1FC
  5
262
331
863
  5
CE
331
205
  5
26B
331
D5
  5
FC
331
874
  5
DC
331
216
  5
822
331
E6
  5
10D
331
227
  5
833
331
F7
  5
11E
331
238
  5
844
331
108
  5
12F
331
249
  5
855
331
119
  5
182
331
25A
  5
868
331
12A
  5
193
331
26B
  5
879
331
17B
  5
1F9
331
1A7
  5
221
331
196
  5
214
331
CE
  5
F5
331
1A8
  5
222
331
271
  5
87F
331
1B9
  5
22F
331
820
  5
1A7
331
1DB
  5
241
331
842
  5
1DD
331
831
  5
1BC
331
1EC
  5
252
331
853
  5
1EE
331
1FD
  5
263
331
864
  5
CF
331
206
  5
26C
331
D6
  5
FD
331
875
  5
DD
331
217
  5
823
331
E7
  5
10E
331
228
  5
834
331
F8
  5
11F
331
239
  5
845
331
109
  5
130
331
24A
  5
856
331
11A
  5
183
331
25B
  5
869
331
12B
  5
194
331
26C
  5
87A
331
17C
  5
1FA
331
197
  5
215
331
CF
  5
F6
331
1A9
  5
223
331
198
  5
216
331
272
  5
880
331
1BA
  5
230
331
821
  5
1A8
331
1DC
  5
242
331
843
  5
1DE
331
832
  5
1BD
331
1ED
  5
253
331
854
  5
1EF
331
1FE
  5
264
331
865
  5
D0
331
207
  5
26D
331
D7
  5
FE
331
876
  5
D7
331
218
  5
824
331
E8
  5
10F
331
229
  5
835
331
23A
  5
846
331
10A
  5
131
331
24B
  5
857
331
11B
  5
184
331
25C
  5
86A
331
12C
  5
195
331
26D
  5
87B
331
17D
  5
1FB
331
F9
  5
120
331
1AA
  5
224
331
199
  5
217
331
188
  5
206
331
273
  5
881
331
1BB
  5
231
331
822
  5
1A9
331
1DD
  5
243
331
844
  5
1DF
331
833
  5
1BE
331
1FF
  5
265
331
1EE
  5
254
331
855
  5
1F0
331
208
  5
26E
331
D8
  5
FF
331
877
  5
D4
331
219
  5
825
331
E9
  5
110
331
C0
  5
E7
331
22A
  5
836
331
23B
  5
847
331
10B
  5
132
331
24C
  5
858
331
11C
  5
185
331
25D
  5
86B
331
12D
  5
196
331
26E
  5
87C
331
17E
  5
1FC
331
FA
  5
121
331
1AB
  5
225
331
19A
  5
218
331
189
  5
207
331
274
  5
882
331
1BC
  5
232
331
823
  5
1AA
331
1DE
  5
244
331
845
  5
1E0
331
834
  5
1C0
331
1EF
  5
255
331
856
  5
1F1
331
209
  5
26F
331
D9
  5
100
331
878
  5
D5
331
21A
  5
826
331
EA
  5
111
331
C1
  5
E8
331
22B
  5
837
331
FB
  5
122
331
23C
  5
848
331
10C
  5
133
331
24D
  5
859
331
25E
  5
86C
331
12E
  5
197
331
26F
  5
87D
331
17F
  5
1FD
331
11D
  5
186
331
1AC
  5
226
331
19B
  5
219
331
18A
  5
208
331
180
  5
1FE
331
275
  5
883
331
1BD
  5
233
331
824
  5
1AB
331
1CE
  5
238
331
835
  5
1C2
331
1DF
  5
245
331
846
  5
1E1
331
1F0
  5
256
331
857
  5
1F2
331
20A
  5
270
331
DA
  5
101
331
879
  5
D6
331
21B
  5
827
331
EB
  5
112
331
C2
  5
E9
331
22C
  5
838
331
FC
  5
123
331
23D
  5
849
331
10D
  5
134
331
24E
  5
85A
331
11E
  5
187
331
25F
  5
86D
331
12F
  5
198
331
260
  5
86E
331
130
  5
199
331
1AD
  5
227
331
18B
  5
209
331
181
  5
1FF
331
1BE
  5
234
331
825
  5
1AC
331
1CF
  5
239
331
836
  5
1C8
331
1E0
  5
246
331
847
  5
1E2
331
1F1
  5
257
331
858
  5
1F3
331
20B
  5
271
331
DB
  5
102
331
87A
  5
D1
331
21C
  5
828
331
EC
  5
113
331
C3
  5
EA
331
22D
  5
839
331
FD
  5
124
331
23E
  5
84A
331
10E
  5
135
331
24F
  5
85D
331
11F
  5
188
331
869
  5
BB
331
250
  5
85E
331
120
  5
189
331
261
  5
86F
331
131
  5
19A
331
18C
  5
20A
331
182
  5
200
331
1D0
  5
23A
331
837
  5
1CE
331
826
  5
1AD
331
1E1
  5
247
331
848
  5
1E3
331
1F2
  5
258
331
859
  5
1F4
331
20C
  5
272
331
DC
  5
103
331
87B
  5
D2
331
21D
  5
829
331
ED
  5
114
331
C4
  5
EB
331
22E
  5
83A
331
FE
  5
125
331
23F
  5
84B
331
10F
  5
178
331
86A
  5
BC
331
240
  5
84C
331
110
  5
179
331
251
  5
85F
331
121
  5
18A
331
262
  5
870
331
132
  5
19B
331
19E
  5
21A
331
18D
  5
20B
331
183
  5
201
331
1C0
  5
235
331
827
  5
1B2
331
1D1
  5
23B
331
838
  5
1CF
331
1E2
  5
248
331
849
  5
1E4
331
1F3
  5
259
331
85A
  5
1F5
331
20D
  5
273
331
DD
  5
104
331
87C
  5
D3
331
21E
  5
82A
331
EE
  5
115
331
C5
  5
EC
331
22F
  5
83B
331
FF
  5
126
331
86B
  5
BD
331
230
  5
83C
331
100
  5
127
331
241
  5
84D
331
111
  5
17A
331
252
  5
860
331
122
  5
18B
331
263
  5
871
331
133
  5
19E
331
18E
  5
20C
331
184
  5
202
331
1D2
  5
23C
331
839
  5
1D0
331
828
  5
1B3
331
1F4
  5
25A
331
1E3
  5
249
331
84A
  5
1E5
331
20E
  5
274
331
DE
  5
105
331
87D
  5
CD
331
21F
  5
82B
331
EF
  5
116
331
C6
  5
ED
331
220
  5
82C
331
F0
  5
117
331
231
  5
83D
331
101
  5
128
331
242
  5
84E
331
112
  5
17B
331
253
  5
861
331
123
  5
18C
331
264
  5
872
331
134
  5
1A0
331
1A0
  5
21B
331
18F
  5
20D
331
185
  5
203
331
1C2
  5
236
331
829
  5
1B4
331
1F5
  5
25B
331
1E4
  5
24A
331
84B
  5
1E6
331
83A
  5
1D1
331
20F
  5
275
331
DF
  5
106
331
87E
  5
C7
331
C7
  5
EE
331
210
  5
81C
331
E0
  5
107
331
221
  5
82D
331
F1
  5
118
331
C8
  5
EF
331
232
  5
83E
331
102
  5
129
331
243
  5
84F
331
113
  5
17C
331
254
  5
862
331
81C
  5
1A3
331
124
  5
18D
331
265
  5
873
331
135
  5
1A2
331
1B2
  5
228
331
190
  5
20E
331
186
  5
204
331
1E5
  5
24B
331
84C
  5
1E7
331
83B
  5
1D2
331
82A
  5
1B5
331
1F6
  5
25C
331
85D
  5
D8
331
87F
  5
C8
331
200
  5
266
331
D0
  5
F7
331
211
  5
81D
331
E1
  5
108
331
880
  5
C9
331
222
  5
82E
331
F2
  5
119
331
C9
  5
F0
331
233
  5
83F
331
103
  5
12A
331
244
  5
850
331
114
  5
17D
331
266
  5
874
331
255
  5
863
331
81D
  5
1A4
331
125
  5
18E
331
1B3
  5
229
331
1A2
  5
21C
331
191
  5
20F
331
187
  5
205
331
1E6
  5
24C
331
84D
  5
1E8
331
83C
  5
1D7
331
82B
  5
1B6
331
BB
  5
E2
331
1F7
  5
25D
331
85E
  5
D9
331
86F
  5
E1
331
1F8
  5
25E
331
201
  5
267
331
D1
  5
F8
331
870
  5
DE
331
212
  5
81E
331
E2
  5
109
331
881
  5
C1
331
223
  5
82F
331
F3
  5
11A
331
CA
  5
F1
331
234
  5
840
331
104
  5
12B
331
245
  5
851
331
115
  5
17E
331
267
  5
875
331
256
  5
864
331
81E
  5
1A5
331
126
  5
18F
331
1B4
  5
22A
331
1A3
  5
21D
331
192
  5
210
331
1E7
  5
24D
331
84E
  5
1E9
331
83D
  5
1D8
331
82C
  5
1B7
331
BC
  5
E3
331
85F
  5
DA
  0
XRECORD
  5
889
102
{ACAD_REACTORS
330
887
102
}
330
887
100
AcDbXrecord
280
     1
 70
     2
  0
XRECORD
  5
888
102
{ACAD_REACTORS
330
887
102
}
330
887
100
AcDbXrecord
280
     1
 40
1.25
  0
XRECORD
  5
88A
102
{ACAD_REACTORS
330
887
102
}
330
887
100
AcDbXrecord
280
     1
 40
1.570796326794896
  0
LAYOUT
  5
6E
102
{ACAD_XDICTIONARY
360
8BE
102
}
102
{ACAD_REACTORS
330
61
102
}
330
61
100
AcDbPlotSettings
  1

  2
none_device
  4
Letter_(8.50_x_11.00_Inches)
  6

 40
6.349999904632567
 41
6.349999904632567
 42
6.350006103515625
 43
6.350006103515625
 44
215.8999938964844
 45
279.3999938964844
 46
0.0
 47
0.0
 48
0.0
 49
0.0
140
0.0
141
0.0
142
1.0
143
75.42096550803953
 70
 11952
 72
     0
 73
     1
 74
     0
  7

 75
     0
147
0.0132589127341973
148
-3940.069693588502
149
1954.5618107203
100
AcDbLayout
  1
Model
 70
     1
 71
     0
 10
0.0
 20
0.0
 11
12.0
 21
9.0
 12
0.0
 22
0.0
 32
0.0
 14
0.0
 24
0.0
 34
0.0
 15
0.0
 25
0.0
 35
0.0
146
0.0
 13
0.0
 23
0.0
 33
0.0
 16
1.0
 26
0.0
 36
0.0
 17
0.0
 27
1.0
 37
0.0
 76
     0
330
6B
331
8B
1001
ACAD_PSEXT
1000
なし
1000
なし
1000
適切ではありません
1000
新しいプロッタ環境設定名を選択しない限り、レイアウトは印刷されません。
1070
     0
  0
LAYOUT
  5
6A
102
{ACAD_XDICTIONARY
360
8BC
102
}
102
{ACAD_REACTORS
330
61
102
}
330
61
100
AcDbPlotSettings
  1

  2
FX DP 205
  4

  6

 40
0.0
 41
0.0
 42
0.0
 43
0.0
 44
0.0
 45
0.0
 46
0.0
 47
0.0
 48
0.0
 49
0.0
140
0.0
141
0.0
142
1.0
143
1.0
 70
   688
 72
     0
 73
     0
 74
     5
  7

 75
    16
147
1.0
148
0.0
149
0.0
100
AcDbLayout
  1
レイアウト1
 70
     1
 71
     1
 10
0.0
 20
0.0
 11
12.0
 21
9.0
 12
0.0
 22
0.0
 32
0.0
 14
1.000000000000000E+20
 24
1.000000000000000E+20
 34
1.000000000000000E+20
 15
-1.000000000000000E+20
 25
-1.000000000000000E+20
 35
-1.000000000000000E+20
146
0.0
 13
0.0
 23
0.0
 33
0.0
 16
1.0
 26
0.0
 36
0.0
 17
0.0
 27
1.0
 37
0.0
 76
     0
330
67
  0
MATERIAL
  5
19
102
{ACAD_XDICTIONARY
360
1A
102
}
102
{ACAD_REACTORS
330
10
102
}
330
10
100
AcDbMaterial
  1
ByBlock
 72
     0
 43
0.0208333333333333
 43
0.0
 43
0.0
 43
0.0
 43
0.0
 43
0.0208333333333333
 43
0.0
 43
0.0
 43
0.0
 43
0.0
 43
1.0
 43
0.0
 43
0.0
 43
0.0
 43
0.0
 43
1.0
 77
     0
 47
0.0208333333333333
 47
0.0
 47
0.0
 47
0.0
 47
0.0
 47
0.0208333333333333
 47
0.0
 47
0.0
 47
0.0
 47
0.0
 47
1.0
 47
0.0
 47
0.0
 47
0.0
 47
0.0
 47
1.0
171
     0
 49
0.0208333333333333
 49
0.0
 49
0.0
 49
0.0
 49
0.0
 49
0.0208333333333333
 49
0.0
 49
0.0
 49
0.0
 49
0.0
 49
1.0
 49
0.0
 49
0.0
 49
0.0
 49
0.0
 49
1.0
175
     0
142
0.0208333333333333
142
0.0
142
0.0
142
0.0
142
0.0
142
0.0208333333333333
142
0.0
142
0.0
142
0.0
142
0.0
142
1.0
142
0.0
142
0.0
142
0.0
142
0.0
142
1.0
179
     0
144
0.0208333333333333
144
0.0
144
0.0
144
0.0
144
0.0
144
0.0208333333333333
144
0.0
144
0.0
144
0.0
144
0.0
144
1.0
144
0.0
144
0.0
144
0.0
144
0.0
144
1.0
147
0.0208333333333333
147
0.0
147
0.0
147
0.0
147
0.0
147
0.0208333333333333
147
0.0
147
0.0
147
0.0
147
0.0
147
1.0
147
0.0
147
0.0
147
0.0
147
0.0
147
1.0
  0
MATERIAL
  5
11
102
{ACAD_XDICTIONARY
360
12
102
}
102
{ACAD_REACTORS
330
10
102
}
330
10
100
AcDbMaterial
  1
ByLayer
 72
     0
 43
0.0208333333333333
 43
0.0
 43
0.0
 43
0.0
 43
0.0
 43
0.0208333333333333
 43
0.0
 43
0.0
 43
0.0
 43
0.0
 43
1.0
 43
0.0
 43
0.0
 43
0.0
 43
0.0
 43
1.0
 77
     0
 47
0.0208333333333333
 47
0.0
 47
0.0
 47
0.0
 47
0.0
 47
0.0208333333333333
 47
0.0
 47
0.0
 47
0.0
 47
0.0
 47
1.0
 47
0.0
 47
0.0
 47
0.0
 47
0.0
 47
1.0
171
     0
 49
0.0208333333333333
 49
0.0
 49
0.0
 49
0.0
 49
0.0
 49
0.0208333333333333
 49
0.0
 49
0.0
 49
0.0
 49
0.0
 49
1.0
 49
0.0
 49
0.0
 49
0.0
 49
0.0
 49
1.0
175
     0
142
0.0208333333333333
142
0.0
142
0.0
142
0.0
142
0.0
142
0.0208333333333333
142
0.0
142
0.0
142
0.0
142
0.0
142
1.0
142
0.0
142
0.0
142
0.0
142
0.0
142
1.0
179
     0
144
0.0208333333333333
144
0.0
144
0.0
144
0.0
144
0.0
144
0.0208333333333333
144
0.0
144
0.0
144
0.0
144
0.0
144
1.0
144
0.0
144
0.0
144
0.0
144
0.0
144
1.0
147
0.0208333333333333
147
0.0
147
0.0
147
0.0
147
0.0
147
0.0208333333333333
147
0.0
147
0.0
147
0.0
147
0.0
147
1.0
147
0.0
147
0.0
147
0.0
147
0.0
147
1.0
  0
MATERIAL
  5
21
102
{ACAD_XDICTIONARY
360
22
102
}
102
{ACAD_REACTORS
330
10
102
}
330
10
100
AcDbMaterial
  1
Global
 72
     0
 43
0.0208333333333333
 43
0.0
 43
0.0
 43
0.0
 43
0.0
 43
0.0208333333333333
 43
0.0
 43
0.0
 43
0.0
 43
0.0
 43
1.0
 43
0.0
 43
0.0
 43
0.0
 43
0.0
 43
1.0
 77
     0
 47
0.0208333333333333
 47
0.0
 47
0.0
 47
0.0
 47
0.0
 47
0.0208333333333333
 47
0.0
 47
0.0
 47
0.0
 47
0.0
 47
1.0
 47
0.0
 47
0.0
 47
0.0
 47
0.0
 47
1.0
171
     0
 49
0.0208333333333333
 49
0.0
 49
0.0
 49
0.0
 49
0.0
 49
0.0208333333333333
 49
0.0
 49
0.0
 49
0.0
 49
0.0
 49
1.0
 49
0.0
 49
0.0
 49
0.0
 49
0.0
 49
1.0
175
     0
142
0.0208333333333333
142
0.0
142
0.0
142
0.0
142
0.0
142
0.0208333333333333
142
0.0
142
0.0
142
0.0
142
0.0
142
1.0
142
0.0
142
0.0
142
0.0
142
0.0
142
1.0
179
     0
144
0.0208333333333333
144
0.0
144
0.0
144
0.0
144
0.0
144
0.0208333333333333
144
0.0
144
0.0
144
0.0
144
0.0
144
1.0
144
0.0
144
0.0
144
0.0
144
0.0
144
1.0
147
0.0208333333333333
147
0.0
147
0.0
147
0.0
147
0.0
147
0.0208333333333333
147
0.0
147
0.0
147
0.0
147
0.0
147
1.0
147
0.0
147
0.0
147
0.0
147
0.0
147
1.0
  0
MLEADERSTYLE
  5
66
102
{ACAD_REACTORS
330
65
102
}
330
65
100
AcDbMLeaderStyle
170
     2
171
     1
172
     0
 90
        2
 40
0.0
 41
0.0
173
     1
 91
-1056964608
340
5A
 92
       -2
290
     1
 42
0.09
291
     1
 43
0.36
  3
Standard
 44
0.18
300

342
55
174
     1
178
     6
175
     1
176
     0
 93
-1056964608
 45
0.18
292
     0
297
     0
 46
0.18
 94
-1056964608
 47
1.0
 49
1.0
140
1.0
293
     1
141
0.0
294
     1
177
     0
142
1.0
295
     0
296
     0
143
0.125
1001
ACAD_MLEADERVER
1070
     2
  0
MLINESTYLE
  5
5F
102
{ACAD_REACTORS
330
5E
102
}
330
5E
100
AcDbMlineStyle
  2
STANDARD
 70
     0
  3

 62
   256
 51
90.0
 52
90.0
 71
     2
 49
0.5
 62
   256
  6
BYLAYER
 49
-0.5
 62
   256
  6
BYLAYER
  0
ACDBPLACEHOLDER
  5
F
102
{ACAD_REACTORS
330
E
102
}
330
E
  0
SCALE
  5
43
102
{ACAD_REACTORS
330
42
102
}
330
42
100
AcDbScale
 70
     0
300
1:1
140
1.0
141
1.0
290
     1
  0
SCALE
  5
44
102
{ACAD_REACTORS
330
42
102
}
330
42
100
AcDbScale
 70
     0
300
1/128" = 1'-0"
140
0.0078125
141
12.0
290
     0
  0
SCALE
  5
45
102
{ACAD_REACTORS
330
42
102
}
330
42
100
AcDbScale
 70
     0
300
1/64" = 1'-0"
140
0.015625
141
12.0
290
     0
  0
SCALE
  5
46
102
{ACAD_REACTORS
330
42
102
}
330
42
100
AcDbScale
 70
     0
300
1/32" = 1'-0"
140
0.03125
141
12.0
290
     0
  0
SCALE
  5
47
102
{ACAD_REACTORS
330
42
102
}
330
42
100
AcDbScale
 70
     0
300
1/16" = 1'-0"
140
0.0625
141
12.0
290
     0
  0
SCALE
  5
48
102
{ACAD_REACTORS
330
42
102
}
330
42
100
AcDbScale
 70
     0
300
3/32" = 1'-0"
140
0.09375
141
12.0
290
     0
  0
SCALE
  5
49
102
{ACAD_REACTORS
330
42
102
}
330
42
100
AcDbScale
 70
     0
300
1/8" = 1'-0"
140
0.125
141
12.0
290
     0
  0
SCALE
  5
4A
102
{ACAD_REACTORS
330
42
102
}
330
42
100
AcDbScale
 70
     0
300
3/16" = 1'-0"
140
0.1875
141
12.0
290
     0
  0
SCALE
  5
4B
102
{ACAD_REACTORS
330
42
102
}
330
42
100
AcDbScale
 70
     0
300
1/4" = 1'-0"
140
0.25
141
12.0
290
     0
  0
SCALE
  5
4C
102
{ACAD_REACTORS
330
42
102
}
330
42
100
AcDbScale
 70
     0
300
3/8" = 1'-0"
140
0.375
141
12.0
290
     0
  0
SCALE
  5
4D
102
{ACAD_REACTORS
330
42
102
}
330
42
100
AcDbScale
 70
     0
300
1/2" = 1'-0"
140
0.5
141
12.0
290
     0
  0
SCALE
  5
4E
102
{ACAD_REACTORS
330
42
102
}
330
42
100
AcDbScale
 70
     0
300
3/4" = 1'-0"
140
0.75
141
12.0
290
     0
  0
SCALE
  5
4F
102
{ACAD_REACTORS
330
42
102
}
330
42
100
AcDbScale
 70
     0
300
1" = 1'-0"
140
1.0
141
12.0
290
     0
  0
SCALE
  5
50
102
{ACAD_REACTORS
330
42
102
}
330
42
100
AcDbScale
 70
     0
300
1-1/2" = 1'-0"
140
1.5
141
12.0
290
     0
  0
SCALE
  5
51
102
{ACAD_REACTORS
330
42
102
}
330
42
100
AcDbScale
 70
     0
300
3" = 1'-0"
140
3.0
141
12.0
290
     0
  0
SCALE
  5
52
102
{ACAD_REACTORS
330
42
102
}
330
42
100
AcDbScale
 70
     0
300
6" = 1'-0"
140
6.0
141
12.0
290
     0
  0
SCALE
  5
53
102
{ACAD_REACTORS
330
42
102
}
330
42
100
AcDbScale
 70
     0
300
1'-0" = 1'-0"
140
12.0
141
12.0
290
     0
  0
TABLESTYLE
  5
64
102
{ACAD_XDICTIONARY
360
58A
102
}
102
{ACAD_REACTORS
330
63
102
}
330
63
100
AcDbTableStyle
  3
Standard
 70
     0
 71
     0
 40
0.06
 41
0.06
280
     0
281
     0
  7
STANDARD
140
0.18
170
     2
 62
     0
 63
     7
283
     0
274
    -2
284
     1
 64
     0
275
    -2
285
     1
 65
     0
276
    -2
286
     1
 66
     0
277
    -2
287
     1
 67
     0
278
    -2
288
     1
 68
     0
279
    -2
289
     1
 69
     0
  7
STANDARD
140
0.25
170
     5
 62
     0
 63
     7
283
     0
274
    -2
284
     1
 64
     0
275
    -2
285
     1
 65
     0
276
    -2
286
     1
 66
     0
277
    -2
287
     1
 67
     0
278
    -2
288
     1
 68
     0
279
    -2
289
     1
 69
     0
  7
STANDARD
140
0.18
170
     5
 62
     0
 63
     7
283
     0
274
    -2
284
     1
 64
     0
275
    -2
285
     1
 65
     0
276
    -2
286
     1
 66
     0
277
    -2
287
     1
 67
     0
278
    -2
288
     1
 68
     0
279
    -2
289
     1
 69
     0
  0
VISUALSTYLE
  5
2F
102
{ACAD_XDICTIONARY
360
895
102
}
102
{ACAD_REACTORS
330
29
102
}
330
29
100
AcDbVisualStyle
  2

 70
     4
 71
     0
 72
     2
 73
     0
 90
        0
 40
-0.6
 41
-30.0
 62
     5
 63
     7
 74
     1
 91
        4
 64
     7
 65
   257
 75
     1
175
     1
 42
1.0
 92
        0
 66
   257
 43
1.0
 76
     1
 77
     6
 78
     2
 67
     7
 79
     5
170
     0
171
     0
290
     0
174
     0
 93
        1
 44
0.0
173
     0
291
     0
 45
0.0
1001
ACAD
1000
AcDbSavedByObjectVersion
1070
     0
  0
VISUALSTYLE
  5
31B
102
{ACAD_XDICTIONARY
360
8C0
102
}
102
{ACAD_REACTORS
330
29
102
}
330
29
100
AcDbVisualStyle
  2

 70
     5
 71
     0
 72
     2
 73
     1
 90
        0
 40
-0.6
 41
-30.0
 62
     5
 63
     7
 74
     1
 91
        4
 64
     7
 65
   257
 75
     1
175
     1
 42
1.0
 92
        0
 66
   257
 43
1.0
 76
     1
 77
     6
 78
     2
 67
     7
 79
     5
170
     0
171
     0
290
     0
174
     0
 93
        1
 44
0.0
173
     0
291
     0
 45
0.0
1001
ACAD
1000
AcDbSavedByObjectVersion
1070
     0
  0
VISUALSTYLE
  5
2E
102
{ACAD_XDICTIONARY
360
893
102
}
102
{ACAD_REACTORS
330
29
102
}
330
29
100
AcDbVisualStyle
  2

 70
     7
 71
     1
 72
     0
 73
     1
 90
        0
 40
-0.6
 41
-30.0
 62
     5
 63
     7
 74
     0
 91
        4
 64
     7
 65
   257
 75
     1
175
     1
 42
1.0
 92
        8
 66
     7
 43
1.0
 76
     1
 77
     6
 78
     2
 67
     7
 79
     5
170
     0
171
     0
290
     0
174
     0
 93
        1
 44
0.0
173
     0
291
     1
 45
0.0
1001
ACAD
1000
AcDbSavedByObjectVersion
1070
     0
  0
VISUALSTYLE
  5
35
102
{ACAD_XDICTIONARY
360
8A1
102
}
102
{ACAD_REACTORS
330
29
102
}
330
29
100
AcDbVisualStyle
  2

 70
    12
 71
     2
 72
     2
 73
     0
 90
        0
 40
-0.6
 41
-30.0
 62
     5
 63
     7
 74
     1
 91
        4
 64
     7
 65
   257
 75
     1
175
     1
 42
1.0
 92
        8
 66
     7
 43
1.0
 76
     1
 77
     6
 78
     2
 67
     7
 79
     5
170
     0
171
     0
290
     0
174
     0
 93
        1
 44
50.0
173
     0
291
     1
 45
0.0
1001
ACAD
1000
AcDbSavedByObjectVersion
1070
     0
  0
VISUALSTYLE
  5
39
102
{ACAD_XDICTIONARY
360
8A9
102
}
102
{ACAD_REACTORS
330
29
102
}
330
29
100
AcDbVisualStyle
  2

 70
    16
 71
     2
 72
     2
 73
     3
 90
        0
 40
-0.6
 41
-30.0
 62
     5
 63
     8
 74
     1
 91
        4
 64
     7
 65
   257
 75
     1
175
     1
 42
1.0
 92
        8
 66
     8
 43
1.0
 76
     1
 77
     6
 78
     2
 67
     7
 79
     5
170
     0
171
     0
290
     0
174
     0
 93
        1
 44
0.0
173
     0
291
     1
 45
0.0
1001
ACAD
1000
AcDbSavedByObjectVersion
1070
     0
  0
VISUALSTYLE
  5
32
102
{ACAD_XDICTIONARY
360
89B
102
}
102
{ACAD_REACTORS
330
29
102
}
330
29
100
AcDbVisualStyle
  2

 70
     9
 71
     3
 72
     2
 73
     0
 90
        0
 40
-0.6
 41
-30.0
 62
     5
 63
     7
 74
     2
 91
        2
 64
     7
 65
   257
 75
     1
175
     1
 42
179.0
 92
        8
 66
     7
 43
1.0
 76
     1
 77
     6
 78
     2
 67
     7
 79
     3
170
     0
171
     0
290
     0
174
     0
 93
        1
 44
0.0
173
     0
291
     0
 45
0.0
1001
ACAD
1000
AcDbSavedByObjectVersion
1070
     0
  0
VISUALSTYLE
  5
34
102
{ACAD_XDICTIONARY
360
89F
102
}
102
{ACAD_REACTORS
330
29
102
}
330
29
100
AcDbVisualStyle
  2

 70
    11
 71
     2
 72
     2
 73
     0
 90
        0
 40
-0.6
 41
-30.0
 62
     5
 63
     7
 74
     1
 91
        4
 64
     7
 65
   257
 75
     1
175
     1
 42
1.0
 92
        8
 66
     7
 43
1.0
 76
     1
 77
     6
 78
     2
 67
     7
 79
     5
170
     0
171
     0
290
     0
174
     0
 93
        1
 44
-50.0
173
     0
291
     1
 45
0.0
1001
ACAD
1000
AcDbSavedByObjectVersion
1070
     0
  0
VISUALSTYLE
  5
41
102
{ACAD_XDICTIONARY
360
8B9
102
}
102
{ACAD_REACTORS
330
29
102
}
330
29
100
AcDbVisualStyle
  2

 70
    22
 71
     2
 72
     2
 73
     0
 90
        0
 40
-0.6
 41
-30.0
 62
     5
 63
     7
 74
     1
 91
        4
 64
     7
 65
   257
 75
     1
175
     1
 42
1.0
 92
        8
 66
     7
 43
1.0
 76
     1
 77
     6
 78
     2
 67
     7
 79
     5
170
     0
171
     0
290
     0
174
     0
 93
        1
 44
0.0
173
     0
291
     1
 45
0.0
1001
ACAD
1000
AcDbSavedByObjectVersion
1070
     0
  0
VISUALSTYLE
  5
38
102
{ACAD_XDICTIONARY
360
8A7
102
}
102
{ACAD_REACTORS
330
29
102
}
330
29
100
AcDbVisualStyle
  2

 70
    15
 71
     2
 72
     2
 73
     0
 90
        0
 40
-0.6
 41
-30.0
 62
     5
 63
     7
 74
     1
 91
        4
 64
     7
 65
   257
 75
     1
175
     1
 42
1.0
 92
        8
 66
     7
 43
1.0
 76
     1
 77
     6
 78
     2
 67
     7
 79
     5
170
     0
171
     0
290
     0
174
     0
 93
        1
 44
0.0
173
     0
291
     1
 45
0.0
1001
ACAD
1000
AcDbSavedByObjectVersion
1070
     0
  0
VISUALSTYLE
  5
2A
102
{ACAD_XDICTIONARY
360
88B
102
}
102
{ACAD_REACTORS
330
29
102
}
330
29
100
AcDbVisualStyle
  2

 70
     0
 71
     2
 72
     1
 73
     1
 90
        2
 40
-0.6
 41
30.0
 62
     5
 63
     7
 74
     0
 91
        0
 64
     7
 65
   257
 75
     1
175
     1
 42
1.0
 92
        8
 66
     7
 43
1.0
 76
     1
 77
     6
 78
     2
 67
     7
 79
     5
170
     0
171
     0
290
     0
174
     0
 93
       13
 44
0.0
173
     0
291
     1
 45
0.0
1001
ACAD
1000
AcDbSavedByObjectVersion
1070
     0
  0
VISUALSTYLE
  5
2B
102
{ACAD_XDICTIONARY
360
88D
102
}
102
{ACAD_REACTORS
330
29
102
}
330
29
100
AcDbVisualStyle
  2

 70
     1
 71
     2
 72
     1
 73
     1
 90
        2
 40
-0.6
 41
30.0
 62
     5
 63
     7
 74
     1
 91
        0
 64
     7
 65
   257
 75
     1
175
     1
 42
1.0
 92
        0
 66
   257
 43
1.0
 76
     1
 77
     6
 78
     2
 67
     7
 79
     5
170
     0
171
     0
290
     0
174
     0
 93
       13
 44
0.0
173
     0
291
     1
 45
0.0
1001
ACAD
1000
AcDbSavedByObjectVersion
1070
     0
  0
VISUALSTYLE
  5
2C
102
{ACAD_XDICTIONARY
360
88F
102
}
102
{ACAD_REACTORS
330
29
102
}
330
29
100
AcDbVisualStyle
  2

 70
     2
 71
     2
 72
     2
 73
     1
 90
        2
 40
-0.6
 41
30.0
 62
     5
 63
     7
 74
     0
 91
        0
 64
     7
 65
   257
 75
     1
175
     1
 42
1.0
 92
        0
 66
     7
 43
1.0
 76
     1
 77
     6
 78
     2
 67
     7
 79
     5
170
     0
171
     0
290
     0
174
     0
 93
       13
 44
0.0
173
     0
291
     1
 45
0.0
1001
ACAD
1000
AcDbSavedByObjectVersion
1070
     0
  0
VISUALSTYLE
  5
2D
102
{ACAD_XDICTIONARY
360
891
102
}
102
{ACAD_REACTORS
330
29
102
}
330
29
100
AcDbVisualStyle
  2

 70
     3
 71
     2
 72
     2
 73
     1
 90
        2
 40
-0.6
 41
30.0
 62
     5
 63
     7
 74
     1
 91
        0
 64
     7
 65
   257
 75
     1
175
     1
 42
1.0
 92
        0
 66
   257
 43
1.0
 76
     1
 77
     6
 78
     2
 67
     7
 79
     5
170
     0
171
     0
290
     0
174
     0
 93
       13
 44
0.0
173
     0
291
     1
 45
0.0
1001
ACAD
1000
AcDbSavedByObjectVersion
1070
     0
  0
VISUALSTYLE
  5
31
102
{ACAD_XDICTIONARY
360
899
102
}
102
{ACAD_REACTORS
330
29
102
}
330
29
100
AcDbVisualStyle
  2

 70
     6
 71
     1
 72
     2
 73
     2
 90
        0
 40
-0.6
 41
-30.0
 62
     5
 63
     7
 74
     2
 91
        2
 64
     7
 65
   257
 75
     2
175
     1
 42
40.0
 92
        0
 66
   257
 43
1.0
 76
     1
 77
     6
 78
     2
 67
     7
 79
     3
170
     0
171
     0
290
     0
174
     0
 93
        1
 44
0.0
173
     0
291
     0
 45
0.0
1001
ACAD
1000
AcDbSavedByObjectVersion
1070
     0
  0
VISUALSTYLE
  5
3F
102
{ACAD_XDICTIONARY
360
8B5
102
}
102
{ACAD_REACTORS
330
29
102
}
330
29
100
AcDbVisualStyle
  2

 70
    20
 71
     2
 72
     2
 73
     0
 90
        0
 40
-0.6
 41
-30.0
 62
     5
 63
     7
 74
     1
 91
        4
 64
     7
 65
   257
 75
     1
175
     1
 42
1.0
 92
       10
 66
     7
 43
1.0
 76
     1
 77
     6
 78
     2
 67
     7
 79
     5
170
     0
171
     0
290
     0
174
     0
 93
        1
 44
0.0
173
     0
291
     1
 45
0.0
1001
ACAD
1000
AcDbSavedByObjectVersion
1070
     0
  0
VISUALSTYLE
  5
37
102
{ACAD_XDICTIONARY
360
8A5
102
}
102
{ACAD_REACTORS
330
29
102
}
330
29
100
AcDbVisualStyle
  2

 70
    14
 71
     2
 72
     2
 73
     0
 90
        0
 40
-0.6
 41
-30.0
 62
     5
 63
     7
 74
     1
 91
        4
 64
     7
 65
   257
 75
     7
175
     7
 42
1.0
 92
        8
 66
     7
 43
1.0
 76
     1
 77
     6
 78
     2
 67
     7
 79
     5
170
     0
171
     0
290
     0
174
     0
 93
        1
 44
0.0
173
     0
291
     1
 45
0.0
1001
ACAD
1000
AcDbSavedByObjectVersion
1070
     0
  0
VISUALSTYLE
  5
40
102
{ACAD_XDICTIONARY
360
8B7
102
}
102
{ACAD_REACTORS
330
29
102
}
330
29
100
AcDbVisualStyle
  2

 70
    21
 71
     2
 72
     2
 73
     0
 90
        0
 40
-0.6
 41
-30.0
 62
     5
 63
     7
 74
     1
 91
        4
 64
     7
 65
   257
 75
     1
175
     1
 42
1.0
 92
        9
 66
     7
 43
1.0
 76
     1
 77
     6
 78
     2
 67
     7
 79
     5
170
     0
171
     0
290
     0
174
     0
 93
        1
 44
0.0
173
     0
291
     1
 45
0.0
1001
ACAD
1000
AcDbSavedByObjectVersion
1070
     0
  0
VISUALSTYLE
  5
33
102
{ACAD_XDICTIONARY
360
89D
102
}
102
{ACAD_REACTORS
330
29
102
}
330
29
100
AcDbVisualStyle
  2

 70
     8
 71
     2
 72
     3
 73
     0
 90
        2
 40
-0.6
 41
30.0
 62
     5
 63
     7
 74
     0
 91
        0
 64
     7
 65
   257
 75
     1
175
     1
 42
1.0
 92
        8
 66
   257
 43
1.0
 76
     1
 77
     6
 78
     2
 67
     7
 79
     3
170
     0
171
     0
290
     0
174
     0
 93
       13
 44
0.0
173
     0
291
     0
 45
0.0
1001
ACAD
1000
AcDbSavedByObjectVersion
1070
     0
  0
VISUALSTYLE
  5
3E
102
{ACAD_XDICTIONARY
360
8B3
102
}
102
{ACAD_REACTORS
330
29
102
}
330
29
100
AcDbVisualStyle
  2

 70
    27
 71
     2
 72
     2
 73
     1
 90
        2
 40
-0.6
 41
30.0
 62
     5
 63
     7
 74
     0
 91
        4
 64
     7
 65
   257
 75
     1
175
     1
 42
1.0
 92
        8
 66
   257
 43
1.0
 76
     1
 77
     6
 78
     2
 67
     8
 79
     3
170
     0
171
     0
290
     0
174
     0
 93
        5
 44
0.0
173
     0
291
     0
 45
0.0
1001
ACAD
1000
AcDbSavedByObjectVersion
1070
     0
  0
VISUALSTYLE
  5
3D
102
{ACAD_XDICTIONARY
360
8B1
102
}
102
{ACAD_REACTORS
330
29
102
}
330
29
100
AcDbVisualStyle
  2

 70
    26
 71
     2
 72
     2
 73
     1
 90
        2
 40
-0.6
 41
30.0
 62
     5
 63
     7
 74
     1
 91
       10
 64
     7
 65
   257
 75
     2
175
     1
 42
1.0
 92
        8
 66
   257
 43
1.0
 76
     1
 77
     6
 78
     2
 67
     7
 79
     3
170
     0
171
     0
290
     0
174
     0
 93
        5
 44
0.0
173
     0
291
     0
 45
0.0
1001
ACAD
1000
AcDbSavedByObjectVersion
1070
     0
  0
VISUALSTYLE
  5
3A
102
{ACAD_XDICTIONARY
360
8AB
102
}
102
{ACAD_REACTORS
330
29
102
}
330
29
100
AcDbVisualStyle
  2

 70
    23
 71
     2
 72
     2
 73
     3
 90
        0
 40
-0.6
 41
-30.0
 62
     5
 63
     7
 74
     2
 91
        2
 64
     7
 65
     7
 75
     1
175
     1
 42
40.0
 92
        8
 66
     7
 43
1.0
 76
     1
 77
     6
 78
     2
 67
     7
 79
     3
170
     0
171
     0
290
     0
174
     0
 93
        1
 44
0.0
173
     0
291
     0
 45
0.0
1001
ACAD
1000
AcDbSavedByObjectVersion
1070
     0
  0
VISUALSTYLE
  5
3B
102
{ACAD_XDICTIONARY
360
8AD
102
}
102
{ACAD_REACTORS
330
29
102
}
330
29
100
AcDbVisualStyle
  2

 70
    24
 71
     1
 72
     2
 73
     2
 90
        0
 40
-0.6
 41
-30.0
 62
     5
 63
     7
 74
     2
 91
        2
 64
     7
 65
     7
 75
     1
175
     1
 42
40.0
 92
       11
 66
     7
 43
1.0
 76
     1
 77
     6
 78
     2
 67
     7
 79
     6
170
     0
171
     0
290
     0
174
     0
 93
        1
 44
0.0
173
     0
291
     0
 45
0.0
1001
ACAD
1000
AcDbSavedByObjectVersion
1070
     0
  0
VISUALSTYLE
  5
36
102
{ACAD_XDICTIONARY
360
8A3
102
}
102
{ACAD_REACTORS
330
29
102
}
330
29
100
AcDbVisualStyle
  2

 70
    13
 71
     2
 72
     2
 73
     0
 90
        0
 40
-0.6
 41
-30.0
 62
     5
 63
     7
 74
     1
 91
        4
 64
     7
 65
   257
 75
     1
175
     1
 42
1.0
 92
       12
 66
     7
 43
1.0
 76
     1
 77
     6
 78
     2
 67
     7
 79
     5
170
     0
171
     0
290
     0
174
     0
 93
        1
 44
0.0
173
     0
291
     1
 45
0.0
1001
ACAD
1000
AcDbSavedByObjectVersion
1070
     0
  0
VISUALSTYLE
  5
30
102
{ACAD_XDICTIONARY
360
897
102
}
102
{ACAD_REACTORS
330
29
102
}
330
29
100
AcDbVisualStyle
  2

 70
     5
 71
     0
 72
     2
 73
     0
 90
        0
 40
-0.6
 41
-30.0
 62
     5
 63
     7
 74
     1
 91
        4
 64
     7
 65
   257
 75
     1
175
     1
 42
1.0
 92
        0
 66
   257
 43
1.0
 76
     1
 77
     6
 78
     2
 67
     7
 79
     3
170
     0
171
     0
290
     0
174
     0
 93
        1
 44
0.0
173
     0
291
     0
 45
0.0
1001
ACAD
1000
AcDbSavedByObjectVersion
1070
     0
  0
VISUALSTYLE
  5
3C
102
{ACAD_XDICTIONARY
360
8AF
102
}
102
{ACAD_REACTORS
330
29
102
}
330
29
100
AcDbVisualStyle
  2

 70
    25
 71
     2
 72
     2
 73
     1
 90
        1
 40
0.5
 41
-30.0
 62
     5
 63
     7
 74
     1
 91
        0
 64
     7
 65
   257
 75
     1
175
     1
 42
1.0
 92
        8
 66
     7
 43
1.0
 76
     1
 77
     6
 78
     2
 67
     7
 79
     3
170
     0
171
     0
290
     0
174
     0
 93
       13
 44
0.0
173
     0
291
     0
 45
0.0
1001
ACAD
1000
AcDbSavedByObjectVersion
1070
     0
  0
DICTIONARYVAR
  5
537
102
{ACAD_REACTORS
330
534
102
}
330
534
100
DictionaryVariables
280
     0
  1
1:1
  0
DICTIONARYVAR
  5
536
102
{ACAD_REACTORS
330
534
102
}
330
534
100
DictionaryVariables
280
     0
  1
STANDARD
  0
DICTIONARYVAR
  5
535
102
{ACAD_REACTORS
330
534
102
}
330
534
100
DictionaryVariables
280
     0
  1
STANDARD
  0
DICTIONARYVAR
  5
53A
102
{ACAD_REACTORS
330
534
102
}
330
534
100
DictionaryVariables
280
     0
  1
1
  0
DICTIONARYVAR
  5
539
102
{ACAD_REACTORS
330
534
102
}
330
534
100
DictionaryVariables
280
     0
  1
0
  0
DICTIONARYVAR
  5
538
102
{ACAD_REACTORS
330
534
102
}
330
534
100
DictionaryVariables
280
     0
  1
127
  0
DICTIONARYVAR
  5
7DD
102
{ACAD_REACTORS
330
534
102
}
330
534
100
DictionaryVariables
280
     0
  1
2
  0
DICTIONARY
  5
8BE
330
6E
100
AcDbDictionary
280
     1
281
     1
  3
ACAD_XREC_ROUNDTRIP
360
8BF
  0
DICTIONARY
  5
8BC
330
6A
100
AcDbDictionary
280
     1
281
     1
  3
ACAD_XREC_ROUNDTRIP
360
8BD
  0
DICTIONARY
  5
1A
330
19
100
AcDbDictionary
280
     1
281
     1
  3
ACAD_XREC_ROUNDTRIP
360
593
  3
BUMPTILE
360
1C
  3
DIFFUSETILE
360
1B
  3
OPACITYTILE
360
1F
  3
REFLECTIONTILE
360
1E
  3
REFRACTIONTILE
360
20
  3
SPECULARTILE
360
1D
  0
DICTIONARY
  5
12
330
11
100
AcDbDictionary
280
     1
281
     1
  3
ACAD_XREC_ROUNDTRIP
360
592
  3
BUMPTILE
360
14
  3
DIFFUSETILE
360
13
  3
OPACITYTILE
360
17
  3
REFLECTIONTILE
360
16
  3
REFRACTIONTILE
360
18
  3
SPECULARTILE
360
15
  0
DICTIONARY
  5
22
330
21
100
AcDbDictionary
280
     1
281
     1
  3
ACAD_XREC_ROUNDTRIP
360
594
  3
BUMPTILE
360
24
  3
DIFFUSETILE
360
23
  3
OPACITYTILE
360
27
  3
REFLECTIONTILE
360
26
  3
REFRACTIONTILE
360
28
  3
SPECULARTILE
360
25
  0
DICTIONARY
  5
58A
330
64
100
AcDbDictionary
280
     1
281
     1
  3
ACAD_ROUNDTRIP_2008_TABLESTYLE_CELLSTYLEMAP
360
884
  3
ACAD_XREC_ROUNDTRIP
360
8BB
  0
DICTIONARY
  5
895
330
2F
100
AcDbDictionary
280
     1
281
     1
  3
ACAD_XREC_ROUNDTRIP
360
896
  0
DICTIONARY
  5
8C0
330
31B
100
AcDbDictionary
280
     1
281
     1
  3
ACAD_XREC_ROUNDTRIP
360
8C1
  0
DICTIONARY
  5
893
330
2E
100
AcDbDictionary
280
     1
281
     1
  3
ACAD_XREC_ROUNDTRIP
360
894
  0
DICTIONARY
  5
8A1
330
35
100
AcDbDictionary
280
     1
281
     1
  3
ACAD_XREC_ROUNDTRIP
360
8A2
  0
DICTIONARY
  5
8A9
330
39
100
AcDbDictionary
280
     1
281
     1
  3
ACAD_XREC_ROUNDTRIP
360
8AA
  0
DICTIONARY
  5
89B
330
32
100
AcDbDictionary
280
     1
281
     1
  3
ACAD_XREC_ROUNDTRIP
360
89C
  0
DICTIONARY
  5
89F
330
34
100
AcDbDictionary
280
     1
281
     1
  3
ACAD_XREC_ROUNDTRIP
360
8A0
  0
DICTIONARY
  5
8B9
330
41
100
AcDbDictionary
280
     1
281
     1
  3
ACAD_XREC_ROUNDTRIP
360
8BA
  0
DICTIONARY
  5
8A7
330
38
100
AcDbDictionary
280
     1
281
     1
  3
ACAD_XREC_ROUNDTRIP
360
8A8
  0
DICTIONARY
  5
88B
330
2A
100
AcDbDictionary
280
     1
281
     1
  3
ACAD_XREC_ROUNDTRIP
360
88C
  0
DICTIONARY
  5
88D
330
2B
100
AcDbDictionary
280
     1
281
     1
  3
ACAD_XREC_ROUNDTRIP
360
88E
  0
DICTIONARY
  5
88F
330
2C
100
AcDbDictionary
280
     1
281
     1
  3
ACAD_XREC_ROUNDTRIP
360
890
  0
DICTIONARY
  5
891
330
2D
100
AcDbDictionary
280
     1
281
     1
  3
ACAD_XREC_ROUNDTRIP
360
892
  0
DICTIONARY
  5
899
330
31
100
AcDbDictionary
280
     1
281
     1
  3
ACAD_XREC_ROUNDTRIP
360
89A
  0
DICTIONARY
  5
8B5
330
3F
100
AcDbDictionary
280
     1
281
     1
  3
ACAD_XREC_ROUNDTRIP
360
8B6
  0
DICTIONARY
  5
8A5
330
37
100
AcDbDictionary
280
     1
281
     1
  3
ACAD_XREC_ROUNDTRIP
360
8A6
  0
DICTIONARY
  5
8B7
330
40
100
AcDbDictionary
280
     1
281
     1
  3
ACAD_XREC_ROUNDTRIP
360
8B8
  0
DICTIONARY
  5
89D
330
33
100
AcDbDictionary
280
     1
281
     1
  3
ACAD_XREC_ROUNDTRIP
360
89E
  0
DICTIONARY
  5
8B3
330
3E
100
AcDbDictionary
280
     1
281
     1
  3
ACAD_XREC_ROUNDTRIP
360
8B4
  0
DICTIONARY
  5
8B1
330
3D
100
AcDbDictionary
280
     1
281
     1
  3
ACAD_XREC_ROUNDTRIP
360
8B2
  0
DICTIONARY
  5
8AB
330
3A
100
AcDbDictionary
280
     1
281
     1
  3
ACAD_XREC_ROUNDTRIP
360
8AC
  0
DICTIONARY
  5
8AD
330
3B
100
AcDbDictionary
280
     1
281
     1
  3
ACAD_XREC_ROUNDTRIP
360
8AE
  0
DICTIONARY
  5
8A3
330
36
100
AcDbDictionary
280
     1
281
     1
  3
ACAD_XREC_ROUNDTRIP
360
8A4
  0
DICTIONARY
  5
897
330
30
100
AcDbDictionary
280
     1
281
     1
  3
ACAD_XREC_ROUNDTRIP
360
898
  0
DICTIONARY
  5
8AF
330
3C
100
AcDbDictionary
280
     1
281
     1
  3
ACAD_XREC_ROUNDTRIP
360
8B0
  0
XRECORD
  5
8BF
102
{ACAD_REACTORS
330
8BE
102
}
330
8BE
100
AcDbXrecord
280
     1
102
SHADEPLOT
 70
     0
102
SHADEPLOTRESLEVEL
 70
     2
102
SHADEPLOTCUSTOMDPI
 70
   300
  0
XRECORD
  5
8BD
102
{ACAD_REACTORS
330
8BC
102
}
330
8BC
100
AcDbXrecord
280
     1
102
SHADEPLOT
 70
     0
102
SHADEPLOTRESLEVEL
 70
     2
102
SHADEPLOTCUSTOMDPI
 70
   300
  0
XRECORD
  5
593
102
{ACAD_REACTORS
330
1A
102
}
330
1A
100
AcDbXrecord
280
     1
102
MATERIAL
148
0.0
149
0.0
149
0.0
 93
        0
 94
      127
282
     0
 72
     0
 77
     0
171
     0
175
     0
179
     0
273
     0
  0
XRECORD
  5
1C
102
{ACAD_REACTORS
330
1A
102
}
330
1A
100
AcDbXrecord
280
     1
270
     1
271
     1
  0
XRECORD
  5
1B
102
{ACAD_REACTORS
330
1A
102
}
330
1A
100
AcDbXrecord
280
     1
270
     1
271
     1
  0
XRECORD
  5
1F
102
{ACAD_REACTORS
330
1A
102
}
330
1A
100
AcDbXrecord
280
     1
270
     1
271
     1
  0
XRECORD
  5
1E
102
{ACAD_REACTORS
330
1A
102
}
330
1A
100
AcDbXrecord
280
     1
270
     1
271
     1
  0
XRECORD
  5
20
102
{ACAD_REACTORS
330
1A
102
}
330
1A
100
AcDbXrecord
280
     1
270
     1
271
     1
  0
XRECORD
  5
1D
102
{ACAD_REACTORS
330
1A
102
}
330
1A
100
AcDbXrecord
280
     1
270
     1
271
     1
  0
XRECORD
  5
592
102
{ACAD_REACTORS
330
12
102
}
330
12
100
AcDbXrecord
280
     1
102
MATERIAL
148
0.0
149
0.0
149
0.0
 93
        0
 94
      127
282
     0
 72
     0
 77
     0
171
     0
175
     0
179
     0
273
     0
  0
XRECORD
  5
14
102
{ACAD_REACTORS
330
12
102
}
330
12
100
AcDbXrecord
280
     1
270
     1
271
     1
  0
XRECORD
  5
13
102
{ACAD_REACTORS
330
12
102
}
330
12
100
AcDbXrecord
280
     1
270
     1
271
     1
  0
XRECORD
  5
17
102
{ACAD_REACTORS
330
12
102
}
330
12
100
AcDbXrecord
280
     1
270
     1
271
     1
  0
XRECORD
  5
16
102
{ACAD_REACTORS
330
12
102
}
330
12
100
AcDbXrecord
280
     1
270
     1
271
     1
  0
XRECORD
  5
18
102
{ACAD_REACTORS
330
12
102
}
330
12
100
AcDbXrecord
280
     1
270
     1
271
     1
  0
XRECORD
  5
15
102
{ACAD_REACTORS
330
12
102
}
330
12
100
AcDbXrecord
280
     1
270
     1
271
     1
  0
XRECORD
  5
594
102
{ACAD_REACTORS
330
22
102
}
330
22
100
AcDbXrecord
280
     1
102
MATERIAL
148
0.0
149
0.0
149
0.0
 93
        0
 94
      127
282
     0
 72
     0
 77
     0
171
     0
175
     0
179
     0
273
     0
  0
XRECORD
  5
24
102
{ACAD_REACTORS
330
22
102
}
330
22
100
AcDbXrecord
280
     1
270
     1
271
     1
  0
XRECORD
  5
23
102
{ACAD_REACTORS
330
22
102
}
330
22
100
AcDbXrecord
280
     1
270
     1
271
     1
  0
XRECORD
  5
27
102
{ACAD_REACTORS
330
22
102
}
330
22
100
AcDbXrecord
280
     1
270
     1
271
     1
  0
XRECORD
  5
26
102
{ACAD_REACTORS
330
22
102
}
330
22
100
AcDbXrecord
280
     1
270
     1
271
     1
  0
XRECORD
  5
28
102
{ACAD_REACTORS
330
22
102
}
330
22
100
AcDbXrecord
280
     1
270
     1
271
     1
  0
XRECORD
  5
25
102
{ACAD_REACTORS
330
22
102
}
330
22
100
AcDbXrecord
280
     1
270
     1
271
     1
  0
CELLSTYLEMAP
  5
884
102
{ACAD_REACTORS
330
58A
102
}
330
58A
100
AcDbCellStyleMap
 90
        3
300
CELLSTYLE
  1
TABLEFORMAT_BEGIN
 90
        5
170
     1
 91
        0
 92
    32768
 62
   257
 93
        1
300
CONTENTFORMAT
  1
CONTENTFORMAT_BEGIN
 90
        0
 91
        0
 92
      512
 93
        0
300

 40
0.0
140
1.0
 94
        5
 62
     0
340
55
144
0.25
309
CONTENTFORMAT_END
171
     1
301
MARGIN
  1
CELLMARGIN_BEGIN
 40
0.06
 40
0.06
 40
0.06
 40
0.06
 40
0.18
 40
0.18
309
CELLMARGIN_END
 94
        6
 95
        1
302
GRIDFORMAT
  1
GRIDFORMAT_BEGIN
 90
        0
 91
        1
 62
     0
 92
       -2
340
0
 93
        0
 40
0.045
309
GRIDFORMAT_END
 95
        2
302
GRIDFORMAT
  1
GRIDFORMAT_BEGIN
 90
        0
 91
        1
 62
     0
 92
       -2
340
0
 93
        0
 40
0.045
309
GRIDFORMAT_END
 95
        4
302
GRIDFORMAT
  1
GRIDFORMAT_BEGIN
 90
        0
 91
        1
 62
     0
 92
       -2
340
0
 93
        0
 40
0.045
309
GRIDFORMAT_END
 95
        8
302
GRIDFORMAT
  1
GRIDFORMAT_BEGIN
 90
        0
 91
        1
 62
     0
 92
       -2
340
0
 93
        0
 40
0.045
309
GRIDFORMAT_END
 95
       16
302
GRIDFORMAT
  1
GRIDFORMAT_BEGIN
 90
        0
 91
        1
 62
     0
 92
       -2
340
0
 93
        0
 40
0.045
309
GRIDFORMAT_END
 95
       32
302
GRIDFORMAT
  1
GRIDFORMAT_BEGIN
 90
        0
 91
        1
 62
     0
 92
       -2
340
0
 93
        0
 40
0.045
309
GRIDFORMAT_END
309
TABLEFORMAT_END
  1
CELLSTYLE_BEGIN
 90
        1
 91
        1
300
_TITLE
309
CELLSTYLE_END
300
CELLSTYLE
  1
TABLEFORMAT_BEGIN
 90
        5
170
     1
 91
        0
 92
        0
 62
   257
 93
        1
300
CONTENTFORMAT
  1
CONTENTFORMAT_BEGIN
 90
        0
 91
        0
 92
      512
 93
        0
300

 40
0.0
140
1.0
 94
        5
 62
     0
340
55
144
0.18
309
CONTENTFORMAT_END
171
     1
301
MARGIN
  1
CELLMARGIN_BEGIN
 40
0.06
 40
0.06
 40
0.06
 40
0.06
 40
0.18
 40
0.18
309
CELLMARGIN_END
 94
        6
 95
        1
302
GRIDFORMAT
  1
GRIDFORMAT_BEGIN
 90
        0
 91
        1
 62
     0
 92
       -2
340
0
 93
        0
 40
0.045
309
GRIDFORMAT_END
 95
        2
302
GRIDFORMAT
  1
GRIDFORMAT_BEGIN
 90
        0
 91
        1
 62
     0
 92
       -2
340
0
 93
        0
 40
0.045
309
GRIDFORMAT_END
 95
        4
302
GRIDFORMAT
  1
GRIDFORMAT_BEGIN
 90
        0
 91
        1
 62
     0
 92
       -2
340
0
 93
        0
 40
0.045
309
GRIDFORMAT_END
 95
        8
302
GRIDFORMAT
  1
GRIDFORMAT_BEGIN
 90
        0
 91
        1
 62
     0
 92
       -2
340
0
 93
        0
 40
0.045
309
GRIDFORMAT_END
 95
       16
302
GRIDFORMAT
  1
GRIDFORMAT_BEGIN
 90
        0
 91
        1
 62
     0
 92
       -2
340
0
 93
        0
 40
0.045
309
GRIDFORMAT_END
 95
       32
302
GRIDFORMAT
  1
GRIDFORMAT_BEGIN
 90
        0
 91
        1
 62
     0
 92
       -2
340
0
 93
        0
 40
0.045
309
GRIDFORMAT_END
309
TABLEFORMAT_END
  1
CELLSTYLE_BEGIN
 90
        2
 91
        1
300
_HEADER
309
CELLSTYLE_END
300
CELLSTYLE
  1
TABLEFORMAT_BEGIN
 90
        5
170
     1
 91
        0
 92
        0
 62
   257
 93
        1
300
CONTENTFORMAT
  1
CONTENTFORMAT_BEGIN
 90
        0
 91
        0
 92
      512
 93
        0
300

 40
0.0
140
1.0
 94
        2
 62
     0
340
55
144
0.18
309
CONTENTFORMAT_END
171
     1
301
MARGIN
  1
CELLMARGIN_BEGIN
 40
0.06
 40
0.06
 40
0.06
 40
0.06
 40
0.18
 40
0.18
309
CELLMARGIN_END
 94
        6
 95
        1
302
GRIDFORMAT
  1
GRIDFORMAT_BEGIN
 90
        0
 91
        1
 62
     0
 92
       -2
340
0
 93
        0
 40
0.045
309
GRIDFORMAT_END
 95
        2
302
GRIDFORMAT
  1
GRIDFORMAT_BEGIN
 90
        0
 91
        1
 62
     0
 92
       -2
340
0
 93
        0
 40
0.045
309
GRIDFORMAT_END
 95
        4
302
GRIDFORMAT
  1
GRIDFORMAT_BEGIN
 90
        0
 91
        1
 62
     0
 92
       -2
340
0
 93
        0
 40
0.045
309
GRIDFORMAT_END
 95
        8
302
GRIDFORMAT
  1
GRIDFORMAT_BEGIN
 90
        0
 91
        1
 62
     0
 92
       -2
340
0
 93
        0
 40
0.045
309
GRIDFORMAT_END
 95
       16
302
GRIDFORMAT
  1
GRIDFORMAT_BEGIN
 90
        0
 91
        1
 62
     0
 92
       -2
340
0
 93
        0
 40
0.045
309
GRIDFORMAT_END
 95
       32
302
GRIDFORMAT
  1
GRIDFORMAT_BEGIN
 90
        0
 91
        1
 62
     0
 92
       -2
340
0
 93
        0
 40
0.045
309
GRIDFORMAT_END
309
TABLEFORMAT_END
  1
CELLSTYLE_BEGIN
 90
        3
 91
        2
300
_DATA
309
CELLSTYLE_END
  0
XRECORD
  5
8BB
102
{ACAD_REACTORS
330
58A
102
}
330
58A
100
AcDbXrecord
280
     1
102
ACAD_ROUNDTRIP_PRE2007_TABLESTYLE
 90
      512
 91
        0
  1

 92
      512
 93
        0
  2

 94
      512
 95
        0
  3

  0
XRECORD
  5
896
102
{ACAD_REACTORS
330
895
102
}
330
895
100
AcDbXrecord
280
     1
102
RTVSPropertyOp0
 70
     1
102
RTVSPropertyOp1
 70
     1
102
RTVSPropertyOp2
 70
     1
102
RTVSPropertyOp3
 70
     1
102
RTVSPropertyOp4
 70
     1
102
RTVSPropertyOp5
 70
     1
102
RTVSPropertyOp6
 70
     1
102
RTVSPropertyOp7
 70
     1
102
RTVSPropertyOp8
 70
     1
102
RTVSPropertyOp9
 70
     1
102
RTVSPropertyOp10
 70
     1
102
RTVSPropertyOp11
 70
     1
102
RTVSPropertyOp12
 70
     1
102
RTVSPropertyOp13
 70
     1
102
RTVSPropertyOp14
 70
     1
102
RTVSPropertyOp15
 70
     1
102
RTVSPropertyOp16
 70
     1
102
RTVSPropertyOp17
 70
     1
102
RTVSPropertyOp18
 70
     1
102
RTVSPropertyOp19
 70
     1
102
RTVSPropertyOp20
 70
     1
102
RTVSPropertyOp21
 70
     1
102
RTVSPropertyOp22
 70
     1
102
RTVSPropertyOp23
 70
     1
102
RTVSPropertyOp24
 70
     1
102
RTVSPropertyOp25
 70
     1
102
RTVSPropertyOp26
 70
     1
102
RTVSPropertyOp27
 70
     1
102
RTVSPropertyOp28
 70
     1
102
RTVSPropertyOp29
 70
     1
102
RTVSPropertyOp30
 70
     1
102
RTVSPropertyOp31
 70
     1
102
RTVSPropertyOp32
 70
     1
  0
XRECORD
  5
8C1
102
{ACAD_REACTORS
330
8C0
102
}
330
8C0
100
AcDbXrecord
280
     1
102
RTVSPropertyOp0
 70
     1
102
RTVSPropertyOp1
 70
     1
102
RTVSPropertyOp2
 70
     1
102
RTVSPropertyOp3
 70
     1
102
RTVSPropertyOp4
 70
     1
102
RTVSPropertyOp5
 70
     1
102
RTVSPropertyOp6
 70
     1
102
RTVSPropertyOp7
 70
     1
102
RTVSPropertyOp8
 70
     1
102
RTVSPropertyOp9
 70
     1
102
RTVSPropertyOp10
 70
     1
102
RTVSPropertyOp11
 70
     1
102
RTVSPropertyOp12
 70
     1
102
RTVSPropertyOp13
 70
     1
102
RTVSPropertyOp14
 70
     1
102
RTVSPropertyOp15
 70
     1
102
RTVSPropertyOp16
 70
     1
102
RTVSPropertyOp17
 70
     1
102
RTVSPropertyOp18
 70
     1
102
RTVSPropertyOp19
 70
     1
102
RTVSPropertyOp20
 70
     1
102
RTVSPropertyOp21
 70
     1
102
RTVSPropertyOp22
 70
     1
102
RTVSPropertyOp23
 70
     1
102
RTVSPropertyOp24
 70
     1
102
RTVSPropertyOp25
 70
     1
102
RTVSPropertyOp26
 70
     1
102
RTVSPropertyOp27
 70
     1
102
RTVSPropertyOp28
 70
     1
102
RTVSPropertyOp29
 70
     1
102
RTVSPropertyOp30
 70
     1
102
RTVSPropertyOp31
 70
     1
102
RTVSPropertyOp32
 70
     1
  0
XRECORD
  5
894
102
{ACAD_REACTORS
330
893
102
}
330
893
100
AcDbXrecord
280
     1
102
RTVSPropertyOp0
 70
     1
102
RTVSPropertyOp1
 70
     1
102
RTVSPropertyOp2
 70
     1
102
RTVSPropertyOp3
 70
     1
102
RTVSPropertyOp4
 70
     1
102
RTVSPropertyOp5
 70
     1
102
RTVSPropertyOp6
 70
     1
102
RTVSPropertyOp7
 70
     1
102
RTVSPropertyOp8
 70
     1
102
RTVSPropertyOp9
 70
     1
102
RTVSPropertyOp10
 70
     1
102
RTVSPropertyOp11
 70
     1
102
RTVSPropertyOp12
 70
     1
102
RTVSPropertyOp13
 70
     1
102
RTVSPropertyOp14
 70
     1
102
RTVSPropertyOp15
 70
     1
102
RTVSPropertyOp16
 70
     1
102
RTVSPropertyOp17
 70
     1
102
RTVSPropertyOp18
 70
     1
102
RTVSPropertyOp19
 70
     1
102
RTVSPropertyOp20
 70
     1
102
RTVSPropertyOp21
 70
     1
102
RTVSPropertyOp22
 70
     1
102
RTVSPropertyOp23
 70
     1
102
RTVSPropertyOp24
 70
     1
102
RTVSPropertyOp25
 70
     1
102
RTVSPropertyOp26
 70
     1
102
RTVSPropertyOp27
 70
     1
102
RTVSPropertyOp28
 70
     1
102
RTVSPropertyOp29
 70
     1
102
RTVSPropertyOp30
 70
     1
102
RTVSPropertyOp31
 70
     1
102
RTVSPropertyOp32
 70
     1
  0
XRECORD
  5
8A2
102
{ACAD_REACTORS
330
8A1
102
}
330
8A1
100
AcDbXrecord
280
     1
102
RTVSPropertyOp0
 70
     1
102
RTVSPropertyOp1
 70
     1
102
RTVSPropertyOp2
 70
     1
102
RTVSPropertyOp3
 70
     1
102
RTVSPropertyOp4
 70
     1
102
RTVSPropertyOp5
 70
     1
102
RTVSPropertyOp6
 70
     1
102
RTVSPropertyOp7
 70
     1
102
RTVSPropertyOp8
 70
     1
102
RTVSPropertyOp9
 70
     1
102
RTVSPropertyOp10
 70
     1
102
RTVSPropertyOp11
 70
     1
102
RTVSPropertyOp12
 70
     1
102
RTVSPropertyOp13
 70
     1
102
RTVSPropertyOp14
 70
     1
102
RTVSPropertyOp15
 70
     1
102
RTVSPropertyOp16
 70
     1
102
RTVSPropertyOp17
 70
     1
102
RTVSPropertyOp18
 70
     1
102
RTVSPropertyOp19
 70
     1
102
RTVSPropertyOp20
 70
     1
102
RTVSPropertyOp21
 70
     1
102
RTVSPropertyOp22
 70
     1
102
RTVSPropertyOp23
 70
     1
102
RTVSPropertyOp24
 70
     1
102
RTVSPropertyOp25
 70
     1
102
RTVSPropertyOp26
 70
     1
102
RTVSPropertyOp27
 70
     1
102
RTVSPropertyOp28
 70
     1
102
RTVSPropertyOp29
 70
     1
102
RTVSPropertyOp30
 70
     1
102
RTVSPropertyOp31
 70
     1
102
RTVSPropertyOp32
 70
     1
  0
XRECORD
  5
8AA
102
{ACAD_REACTORS
330
8A9
102
}
330
8A9
100
AcDbXrecord
280
     1
102
RTVSPropertyOp0
 70
     1
102
RTVSPropertyOp1
 70
     1
102
RTVSPropertyOp2
 70
     1
102
RTVSPropertyOp3
 70
     1
102
RTVSPropertyOp4
 70
     1
102
RTVSPropertyOp5
 70
     1
102
RTVSPropertyOp6
 70
     1
102
RTVSPropertyOp7
 70
     1
102
RTVSPropertyOp8
 70
     1
102
RTVSPropertyOp9
 70
     1
102
RTVSPropertyOp10
 70
     1
102
RTVSPropertyOp11
 70
     1
102
RTVSPropertyOp12
 70
     1
102
RTVSPropertyOp13
 70
     1
102
RTVSPropertyOp14
 70
     1
102
RTVSPropertyOp15
 70
     1
102
RTVSPropertyOp16
 70
     1
102
RTVSPropertyOp17
 70
     1
102
RTVSPropertyOp18
 70
     1
102
RTVSPropertyOp19
 70
     1
102
RTVSPropertyOp20
 70
     1
102
RTVSPropertyOp21
 70
     1
102
RTVSPropertyOp22
 70
     1
102
RTVSPropertyOp23
 70
     1
102
RTVSPropertyOp24
 70
     1
102
RTVSPropertyOp25
 70
     1
102
RTVSPropertyOp26
 70
     1
102
RTVSPropertyOp27
 70
     1
102
RTVSPropertyOp28
 70
     1
102
RTVSPropertyOp29
 70
     1
102
RTVSPropertyOp30
 70
     1
102
RTVSPropertyOp31
 70
     1
102
RTVSPropertyOp32
 70
     1
  0
XRECORD
  5
89C
102
{ACAD_REACTORS
330
89B
102
}
330
89B
100
AcDbXrecord
280
     1
102
RTVSPropertyOp0
 70
     1
102
RTVSPropertyOp1
 70
     1
102
RTVSPropertyOp2
 70
     1
102
RTVSPropertyOp3
 70
     1
102
RTVSPropertyOp4
 70
     1
102
RTVSPropertyOp5
 70
     1
102
RTVSPropertyOp6
 70
     1
102
RTVSPropertyOp7
 70
     1
102
RTVSPropertyOp8
 70
     1
102
RTVSPropertyOp9
 70
     1
102
RTVSPropertyOp10
 70
     1
102
RTVSPropertyOp11
 70
     1
102
RTVSPropertyOp12
 70
     1
102
RTVSPropertyOp13
 70
     1
102
RTVSPropertyOp14
 70
     1
102
RTVSPropertyOp15
 70
     1
102
RTVSPropertyOp16
 70
     1
102
RTVSPropertyOp17
 70
     1
102
RTVSPropertyOp18
 70
     1
102
RTVSPropertyOp19
 70
     1
102
RTVSPropertyOp20
 70
     1
102
RTVSPropertyOp21
 70
     1
102
RTVSPropertyOp22
 70
     1
102
RTVSPropertyOp23
 70
     1
102
RTVSPropertyOp24
 70
     1
102
RTVSPropertyOp25
 70
     1
102
RTVSPropertyOp26
 70
     1
102
RTVSPropertyOp27
 70
     1
102
RTVSPropertyOp28
 70
     1
102
RTVSPropertyOp29
 70
     1
102
RTVSPropertyOp30
 70
     1
102
RTVSPropertyOp31
 70
     1
102
RTVSPropertyOp32
 70
     1
  0
XRECORD
  5
8A0
102
{ACAD_REACTORS
330
89F
102
}
330
89F
100
AcDbXrecord
280
     1
102
RTVSPropertyOp0
 70
     1
102
RTVSPropertyOp1
 70
     1
102
RTVSPropertyOp2
 70
     1
102
RTVSPropertyOp3
 70
     1
102
RTVSPropertyOp4
 70
     1
102
RTVSPropertyOp5
 70
     1
102
RTVSPropertyOp6
 70
     1
102
RTVSPropertyOp7
 70
     1
102
RTVSPropertyOp8
 70
     1
102
RTVSPropertyOp9
 70
     1
102
RTVSPropertyOp10
 70
     1
102
RTVSPropertyOp11
 70
     1
102
RTVSPropertyOp12
 70
     1
102
RTVSPropertyOp13
 70
     1
102
RTVSPropertyOp14
 70
     1
102
RTVSPropertyOp15
 70
     1
102
RTVSPropertyOp16
 70
     1
102
RTVSPropertyOp17
 70
     1
102
RTVSPropertyOp18
 70
     1
102
RTVSPropertyOp19
 70
     1
102
RTVSPropertyOp20
 70
     1
102
RTVSPropertyOp21
 70
     1
102
RTVSPropertyOp22
 70
     1
102
RTVSPropertyOp23
 70
     1
102
RTVSPropertyOp24
 70
     1
102
RTVSPropertyOp25
 70
     1
102
RTVSPropertyOp26
 70
     1
102
RTVSPropertyOp27
 70
     1
102
RTVSPropertyOp28
 70
     1
102
RTVSPropertyOp29
 70
     1
102
RTVSPropertyOp30
 70
     1
102
RTVSPropertyOp31
 70
     1
102
RTVSPropertyOp32
 70
     1
  0
XRECORD
  5
8BA
102
{ACAD_REACTORS
330
8B9
102
}
330
8B9
100
AcDbXrecord
280
     1
102
RTVSPropertyOp0
 70
     0
102
RTVSPropertyOp1
 70
     0
102
RTVSPropertyOp2
 70
     0
102
RTVSPropertyOp3
 70
     0
102
RTVSPropertyOp4
 70
     0
102
RTVSPropertyOp5
 70
     0
102
RTVSPropertyOp6
 70
     0
102
RTVSPropertyOp7
 70
     0
102
RTVSPropertyOp8
 70
     0
102
RTVSPropertyOp9
 70
     0
102
RTVSPropertyOp10
 70
     0
102
RTVSPropertyOp11
 70
     0
102
RTVSPropertyOp12
 70
     0
102
RTVSPropertyOp13
 70
     0
102
RTVSPropertyOp14
 70
     2
102
RTVSPropertyOp15
 70
     0
102
RTVSPropertyOp16
 70
     0
102
RTVSPropertyOp17
 70
     0
102
RTVSPropertyOp18
 70
     0
102
RTVSPropertyOp19
 70
     0
102
RTVSPropertyOp20
 70
     0
102
RTVSPropertyOp21
 70
     0
102
RTVSPropertyOp22
 70
     0
102
RTVSPropertyOp23
 70
     0
102
RTVSPropertyOp24
 70
     0
102
RTVSPropertyOp25
 70
     0
102
RTVSPropertyOp26
 70
     0
102
RTVSPropertyOp27
 70
     0
102
RTVSPropertyOp28
 70
     0
102
RTVSPropertyOp29
 70
     0
102
RTVSPropertyOp30
 70
     0
102
RTVSPropertyOp31
 70
     0
102
RTVSPropertyOp32
 70
     0
  0
XRECORD
  5
8A8
102
{ACAD_REACTORS
330
8A7
102
}
330
8A7
100
AcDbXrecord
280
     1
102
RTVSPropertyOp0
 70
     1
102
RTVSPropertyOp1
 70
     1
102
RTVSPropertyOp2
 70
     1
102
RTVSPropertyOp3
 70
     1
102
RTVSPropertyOp4
 70
     1
102
RTVSPropertyOp5
 70
     1
102
RTVSPropertyOp6
 70
     1
102
RTVSPropertyOp7
 70
     1
102
RTVSPropertyOp8
 70
     1
102
RTVSPropertyOp9
 70
     1
102
RTVSPropertyOp10
 70
     1
102
RTVSPropertyOp11
 70
     1
102
RTVSPropertyOp12
 70
     1
102
RTVSPropertyOp13
 70
     1
102
RTVSPropertyOp14
 70
     1
102
RTVSPropertyOp15
 70
     1
102
RTVSPropertyOp16
 70
     1
102
RTVSPropertyOp17
 70
     1
102
RTVSPropertyOp18
 70
     1
102
RTVSPropertyOp19
 70
     1
102
RTVSPropertyOp20
 70
     1
102
RTVSPropertyOp21
 70
     1
102
RTVSPropertyOp22
 70
     1
102
RTVSPropertyOp23
 70
     1
102
RTVSPropertyOp24
 70
     1
102
RTVSPropertyOp25
 70
     1
102
RTVSPropertyOp26
 70
     1
102
RTVSPropertyOp27
 70
     1
102
RTVSPropertyOp28
 70
     1
102
RTVSPropertyOp29
 70
     1
102
RTVSPropertyOp30
 70
     1
102
RTVSPropertyOp31
 70
     1
102
RTVSPropertyOp32
 70
     1
  0
XRECORD
  5
88C
102
{ACAD_REACTORS
330
88B
102
}
330
88B
100
AcDbXrecord
280
     1
102
RTVSPropertyOp0
 70
     1
102
RTVSPropertyOp1
 70
     1
102
RTVSPropertyOp2
 70
     1
102
RTVSPropertyOp3
 70
     1
102
RTVSPropertyOp4
 70
     1
102
RTVSPropertyOp5
 70
     1
102
RTVSPropertyOp6
 70
     1
102
RTVSPropertyOp7
 70
     1
102
RTVSPropertyOp8
 70
     1
102
RTVSPropertyOp9
 70
     1
102
RTVSPropertyOp10
 70
     1
102
RTVSPropertyOp11
 70
     1
102
RTVSPropertyOp12
 70
     1
102
RTVSPropertyOp13
 70
     1
102
RTVSPropertyOp14
 70
     1
102
RTVSPropertyOp15
 70
     1
102
RTVSPropertyOp16
 70
     1
102
RTVSPropertyOp17
 70
     1
102
RTVSPropertyOp18
 70
     1
102
RTVSPropertyOp19
 70
     1
102
RTVSPropertyOp20
 70
     1
102
RTVSPropertyOp21
 70
     1
102
RTVSPropertyOp22
 70
     1
102
RTVSPropertyOp23
 70
     1
102
RTVSPropertyOp24
 70
     1
102
RTVSPropertyOp25
 70
     1
102
RTVSPropertyOp26
 70
     1
102
RTVSPropertyOp27
 70
     1
102
RTVSPropertyOp28
 70
     1
102
RTVSPropertyOp29
 70
     1
102
RTVSPropertyOp30
 70
     1
102
RTVSPropertyOp31
 70
     1
102
RTVSPropertyOp32
 70
     1
  0
XRECORD
  5
88E
102
{ACAD_REACTORS
330
88D
102
}
330
88D
100
AcDbXrecord
280
     1
102
RTVSPropertyOp0
 70
     1
102
RTVSPropertyOp1
 70
     1
102
RTVSPropertyOp2
 70
     1
102
RTVSPropertyOp3
 70
     1
102
RTVSPropertyOp4
 70
     1
102
RTVSPropertyOp5
 70
     1
102
RTVSPropertyOp6
 70
     1
102
RTVSPropertyOp7
 70
     1
102
RTVSPropertyOp8
 70
     1
102
RTVSPropertyOp9
 70
     1
102
RTVSPropertyOp10
 70
     1
102
RTVSPropertyOp11
 70
     1
102
RTVSPropertyOp12
 70
     1
102
RTVSPropertyOp13
 70
     1
102
RTVSPropertyOp14
 70
     1
102
RTVSPropertyOp15
 70
     1
102
RTVSPropertyOp16
 70
     1
102
RTVSPropertyOp17
 70
     1
102
RTVSPropertyOp18
 70
     1
102
RTVSPropertyOp19
 70
     1
102
RTVSPropertyOp20
 70
     1
102
RTVSPropertyOp21
 70
     1
102
RTVSPropertyOp22
 70
     1
102
RTVSPropertyOp23
 70
     1
102
RTVSPropertyOp24
 70
     1
102
RTVSPropertyOp25
 70
     1
102
RTVSPropertyOp26
 70
     1
102
RTVSPropertyOp27
 70
     1
102
RTVSPropertyOp28
 70
     1
102
RTVSPropertyOp29
 70
     1
102
RTVSPropertyOp30
 70
     1
102
RTVSPropertyOp31
 70
     1
102
RTVSPropertyOp32
 70
     1
  0
XRECORD
  5
890
102
{ACAD_REACTORS
330
88F
102
}
330
88F
100
AcDbXrecord
280
     1
102
RTVSPropertyOp0
 70
     1
102
RTVSPropertyOp1
 70
     1
102
RTVSPropertyOp2
 70
     1
102
RTVSPropertyOp3
 70
     1
102
RTVSPropertyOp4
 70
     1
102
RTVSPropertyOp5
 70
     1
102
RTVSPropertyOp6
 70
     1
102
RTVSPropertyOp7
 70
     1
102
RTVSPropertyOp8
 70
     1
102
RTVSPropertyOp9
 70
     1
102
RTVSPropertyOp10
 70
     1
102
RTVSPropertyOp11
 70
     1
102
RTVSPropertyOp12
 70
     1
102
RTVSPropertyOp13
 70
     1
102
RTVSPropertyOp14
 70
     1
102
RTVSPropertyOp15
 70
     1
102
RTVSPropertyOp16
 70
     1
102
RTVSPropertyOp17
 70
     1
102
RTVSPropertyOp18
 70
     1
102
RTVSPropertyOp19
 70
     1
102
RTVSPropertyOp20
 70
     1
102
RTVSPropertyOp21
 70
     1
102
RTVSPropertyOp22
 70
     1
102
RTVSPropertyOp23
 70
     1
102
RTVSPropertyOp24
 70
     1
102
RTVSPropertyOp25
 70
     1
102
RTVSPropertyOp26
 70
     1
102
RTVSPropertyOp27
 70
     1
102
RTVSPropertyOp28
 70
     1
102
RTVSPropertyOp29
 70
     1
102
RTVSPropertyOp30
 70
     1
102
RTVSPropertyOp31
 70
     1
102
RTVSPropertyOp32
 70
     1
  0
XRECORD
  5
892
102
{ACAD_REACTORS
330
891
102
}
330
891
100
AcDbXrecord
280
     1
102
RTVSPropertyOp0
 70
     1
102
RTVSPropertyOp1
 70
     1
102
RTVSPropertyOp2
 70
     1
102
RTVSPropertyOp3
 70
     1
102
RTVSPropertyOp4
 70
     1
102
RTVSPropertyOp5
 70
     1
102
RTVSPropertyOp6
 70
     1
102
RTVSPropertyOp7
 70
     1
102
RTVSPropertyOp8
 70
     1
102
RTVSPropertyOp9
 70
     1
102
RTVSPropertyOp10
 70
     1
102
RTVSPropertyOp11
 70
     1
102
RTVSPropertyOp12
 70
     1
102
RTVSPropertyOp13
 70
     1
102
RTVSPropertyOp14
 70
     1
102
RTVSPropertyOp15
 70
     1
102
RTVSPropertyOp16
 70
     1
102
RTVSPropertyOp17
 70
     1
102
RTVSPropertyOp18
 70
     1
102
RTVSPropertyOp19
 70
     1
102
RTVSPropertyOp20
 70
     1
102
RTVSPropertyOp21
 70
     1
102
RTVSPropertyOp22
 70
     1
102
RTVSPropertyOp23
 70
     1
102
RTVSPropertyOp24
 70
     1
102
RTVSPropertyOp25
 70
     1
102
RTVSPropertyOp26
 70
     1
102
RTVSPropertyOp27
 70
     1
102
RTVSPropertyOp28
 70
     1
102
RTVSPropertyOp29
 70
     1
102
RTVSPropertyOp30
 70
     1
102
RTVSPropertyOp31
 70
     1
102
RTVSPropertyOp32
 70
     1
  0
XRECORD
  5
89A
102
{ACAD_REACTORS
330
899
102
}
330
899
100
AcDbXrecord
280
     1
102
RTVSPropertyOp0
 70
     1
102
RTVSPropertyOp1
 70
     1
102
RTVSPropertyOp2
 70
     1
102
RTVSPropertyOp3
 70
     1
102
RTVSPropertyOp4
 70
     1
102
RTVSPropertyOp5
 70
     1
102
RTVSPropertyOp6
 70
     1
102
RTVSPropertyOp7
 70
     1
102
RTVSPropertyOp8
 70
     1
102
RTVSPropertyOp9
 70
     1
102
RTVSPropertyOp10
 70
     1
102
RTVSPropertyOp11
 70
     1
102
RTVSPropertyOp12
 70
     1
102
RTVSPropertyOp13
 70
     1
102
RTVSPropertyOp14
 70
     1
102
RTVSPropertyOp15
 70
     1
102
RTVSPropertyOp16
 70
     1
102
RTVSPropertyOp17
 70
     1
102
RTVSPropertyOp18
 70
     1
102
RTVSPropertyOp19
 70
     1
102
RTVSPropertyOp20
 70
     1
102
RTVSPropertyOp21
 70
     1
102
RTVSPropertyOp22
 70
     1
102
RTVSPropertyOp23
 70
     1
102
RTVSPropertyOp24
 70
     1
102
RTVSPropertyOp25
 70
     1
102
RTVSPropertyOp26
 70
     1
102
RTVSPropertyOp27
 70
     1
102
RTVSPropertyOp28
 70
     1
102
RTVSPropertyOp29
 70
     1
102
RTVSPropertyOp30
 70
     1
102
RTVSPropertyOp31
 70
     1
102
RTVSPropertyOp32
 70
     1
  0
XRECORD
  5
8B6
102
{ACAD_REACTORS
330
8B5
102
}
330
8B5
100
AcDbXrecord
280
     1
102
RTVSPropertyOp0
 70
     0
102
RTVSPropertyOp1
 70
     0
102
RTVSPropertyOp2
 70
     0
102
RTVSPropertyOp3
 70
     0
102
RTVSPropertyOp4
 70
     0
102
RTVSPropertyOp5
 70
     0
102
RTVSPropertyOp6
 70
     0
102
RTVSPropertyOp7
 70
     0
102
RTVSPropertyOp8
 70
     0
102
RTVSPropertyOp9
 70
     0
102
RTVSPropertyOp10
 70
     0
102
RTVSPropertyOp11
 70
     0
102
RTVSPropertyOp12
 70
     0
102
RTVSPropertyOp13
 70
     0
102
RTVSPropertyOp14
 70
     2
102
RTVSPropertyOp15
 70
     0
102
RTVSPropertyOp16
 70
     0
102
RTVSPropertyOp17
 70
     0
102
RTVSPropertyOp18
 70
     0
102
RTVSPropertyOp19
 70
     0
102
RTVSPropertyOp20
 70
     0
102
RTVSPropertyOp21
 70
     0
102
RTVSPropertyOp22
 70
     0
102
RTVSPropertyOp23
 70
     0
102
RTVSPropertyOp24
 70
     0
102
RTVSPropertyOp25
 70
     0
102
RTVSPropertyOp26
 70
     0
102
RTVSPropertyOp27
 70
     0
102
RTVSPropertyOp28
 70
     0
102
RTVSPropertyOp29
 70
     0
102
RTVSPropertyOp30
 70
     0
102
RTVSPropertyOp31
 70
     0
102
RTVSPropertyOp32
 70
     0
  0
XRECORD
  5
8A6
102
{ACAD_REACTORS
330
8A5
102
}
330
8A5
100
AcDbXrecord
280
     1
102
RTVSPropertyOp0
 70
     1
102
RTVSPropertyOp1
 70
     1
102
RTVSPropertyOp2
 70
     1
102
RTVSPropertyOp3
 70
     1
102
RTVSPropertyOp4
 70
     1
102
RTVSPropertyOp5
 70
     1
102
RTVSPropertyOp6
 70
     1
102
RTVSPropertyOp7
 70
     1
102
RTVSPropertyOp8
 70
     1
102
RTVSPropertyOp9
 70
     1
102
RTVSPropertyOp10
 70
     1
102
RTVSPropertyOp11
 70
     1
102
RTVSPropertyOp12
 70
     1
102
RTVSPropertyOp13
 70
     1
102
RTVSPropertyOp14
 70
     1
102
RTVSPropertyOp15
 70
     1
102
RTVSPropertyOp16
 70
     1
102
RTVSPropertyOp17
 70
     1
102
RTVSPropertyOp18
 70
     1
102
RTVSPropertyOp19
 70
     1
102
RTVSPropertyOp20
 70
     1
102
RTVSPropertyOp21
 70
     1
102
RTVSPropertyOp22
 70
     1
102
RTVSPropertyOp23
 70
     1
102
RTVSPropertyOp24
 70
     1
102
RTVSPropertyOp25
 70
     1
102
RTVSPropertyOp26
 70
     1
102
RTVSPropertyOp27
 70
     1
102
RTVSPropertyOp28
 70
     1
102
RTVSPropertyOp29
 70
     1
102
RTVSPropertyOp30
 70
     1
102
RTVSPropertyOp31
 70
     1
102
RTVSPropertyOp32
 70
     1
  0
XRECORD
  5
8B8
102
{ACAD_REACTORS
330
8B7
102
}
330
8B7
100
AcDbXrecord
280
     1
102
RTVSPropertyOp0
 70
     0
102
RTVSPropertyOp1
 70
     0
102
RTVSPropertyOp2
 70
     0
102
RTVSPropertyOp3
 70
     0
102
RTVSPropertyOp4
 70
     0
102
RTVSPropertyOp5
 70
     0
102
RTVSPropertyOp6
 70
     0
102
RTVSPropertyOp7
 70
     0
102
RTVSPropertyOp8
 70
     0
102
RTVSPropertyOp9
 70
     0
102
RTVSPropertyOp10
 70
     0
102
RTVSPropertyOp11
 70
     0
102
RTVSPropertyOp12
 70
     0
102
RTVSPropertyOp13
 70
     0
102
RTVSPropertyOp14
 70
     2
102
RTVSPropertyOp15
 70
     0
102
RTVSPropertyOp16
 70
     0
102
RTVSPropertyOp17
 70
     0
102
RTVSPropertyOp18
 70
     0
102
RTVSPropertyOp19
 70
     0
102
RTVSPropertyOp20
 70
     0
102
RTVSPropertyOp21
 70
     0
102
RTVSPropertyOp22
 70
     0
102
RTVSPropertyOp23
 70
     0
102
RTVSPropertyOp24
 70
     0
102
RTVSPropertyOp25
 70
     0
102
RTVSPropertyOp26
 70
     0
102
RTVSPropertyOp27
 70
     0
102
RTVSPropertyOp28
 70
     0
102
RTVSPropertyOp29
 70
     0
102
RTVSPropertyOp30
 70
     0
102
RTVSPropertyOp31
 70
     0
102
RTVSPropertyOp32
 70
     0
  0
XRECORD
  5
89E
102
{ACAD_REACTORS
330
89D
102
}
330
89D
100
AcDbXrecord
280
     1
102
RTVSPropertyOp0
 70
     1
102
RTVSPropertyOp1
 70
     1
102
RTVSPropertyOp2
 70
     1
102
RTVSPropertyOp3
 70
     1
102
RTVSPropertyOp4
 70
     1
102
RTVSPropertyOp5
 70
     1
102
RTVSPropertyOp6
 70
     1
102
RTVSPropertyOp7
 70
     1
102
RTVSPropertyOp8
 70
     1
102
RTVSPropertyOp9
 70
     1
102
RTVSPropertyOp10
 70
     1
102
RTVSPropertyOp11
 70
     1
102
RTVSPropertyOp12
 70
     1
102
RTVSPropertyOp13
 70
     1
102
RTVSPropertyOp14
 70
     1
102
RTVSPropertyOp15
 70
     1
102
RTVSPropertyOp16
 70
     1
102
RTVSPropertyOp17
 70
     1
102
RTVSPropertyOp18
 70
     1
102
RTVSPropertyOp19
 70
     1
102
RTVSPropertyOp20
 70
     1
102
RTVSPropertyOp21
 70
     1
102
RTVSPropertyOp22
 70
     1
102
RTVSPropertyOp23
 70
     1
102
RTVSPropertyOp24
 70
     1
102
RTVSPropertyOp25
 70
     1
102
RTVSPropertyOp26
 70
     1
102
RTVSPropertyOp27
 70
     1
102
RTVSPropertyOp28
 70
     1
102
RTVSPropertyOp29
 70
     1
102
RTVSPropertyOp30
 70
     1
102
RTVSPropertyOp31
 70
     1
102
RTVSPropertyOp32
 70
     1
  0
XRECORD
  5
8B4
102
{ACAD_REACTORS
330
8B3
102
}
330
8B3
100
AcDbXrecord
280
     1
102
RTVSPropertyOp0
 70
     1
102
RTVSPropertyOp1
 70
     1
102
RTVSPropertyOp2
 70
     1
102
RTVSPropertyOp3
 70
     1
102
RTVSPropertyOp4
 70
     1
102
RTVSPropertyOp5
 70
     1
102
RTVSPropertyOp6
 70
     1
102
RTVSPropertyOp7
 70
     1
102
RTVSPropertyOp8
 70
     1
102
RTVSPropertyOp9
 70
     1
102
RTVSPropertyOp10
 70
     1
102
RTVSPropertyOp11
 70
     1
102
RTVSPropertyOp12
 70
     1
102
RTVSPropertyOp13
 70
     1
102
RTVSPropertyOp14
 70
     1
102
RTVSPropertyOp15
 70
     1
102
RTVSPropertyOp16
 70
     1
102
RTVSPropertyOp17
 70
     1
102
RTVSPropertyOp18
 70
     1
102
RTVSPropertyOp19
 70
     1
102
RTVSPropertyOp20
 70
     1
102
RTVSPropertyOp21
 70
     1
102
RTVSPropertyOp22
 70
     1
102
RTVSPropertyOp23
 70
     1
102
RTVSPropertyOp24
 70
     1
102
RTVSPropertyOp25
 70
     1
102
RTVSPropertyOp26
 70
     1
102
RTVSPropertyOp27
 70
     1
102
RTVSPropertyOp28
 70
     1
102
RTVSPropertyOp29
 70
     1
102
RTVSPropertyOp30
 70
     1
102
RTVSPropertyOp31
 70
     1
102
RTVSPropertyOp32
 70
     1
  0
XRECORD
  5
8B2
102
{ACAD_REACTORS
330
8B1
102
}
330
8B1
100
AcDbXrecord
280
     1
102
RTVSPropertyOp0
 70
     1
102
RTVSPropertyOp1
 70
     1
102
RTVSPropertyOp2
 70
     1
102
RTVSPropertyOp3
 70
     1
102
RTVSPropertyOp4
 70
     1
102
RTVSPropertyOp5
 70
     1
102
RTVSPropertyOp6
 70
     1
102
RTVSPropertyOp7
 70
     1
102
RTVSPropertyOp8
 70
     1
102
RTVSPropertyOp9
 70
     1
102
RTVSPropertyOp10
 70
     1
102
RTVSPropertyOp11
 70
     1
102
RTVSPropertyOp12
 70
     1
102
RTVSPropertyOp13
 70
     1
102
RTVSPropertyOp14
 70
     1
102
RTVSPropertyOp15
 70
     1
102
RTVSPropertyOp16
 70
     1
102
RTVSPropertyOp17
 70
     1
102
RTVSPropertyOp18
 70
     1
102
RTVSPropertyOp19
 70
     1
102
RTVSPropertyOp20
 70
     1
102
RTVSPropertyOp21
 70
     1
102
RTVSPropertyOp22
 70
     1
102
RTVSPropertyOp23
 70
     1
102
RTVSPropertyOp24
 70
     1
102
RTVSPropertyOp25
 70
     1
102
RTVSPropertyOp26
 70
     1
102
RTVSPropertyOp27
 70
     1
102
RTVSPropertyOp28
 70
     1
102
RTVSPropertyOp29
 70
     1
102
RTVSPropertyOp30
 70
     1
102
RTVSPropertyOp31
 70
     1
102
RTVSPropertyOp32
 70
     1
  0
XRECORD
  5
8AC
102
{ACAD_REACTORS
330
8AB
102
}
330
8AB
100
AcDbXrecord
280
     1
102
RTVSPropertyOp0
 70
     1
102
RTVSPropertyOp1
 70
     1
102
RTVSPropertyOp2
 70
     1
102
RTVSPropertyOp3
 70
     1
102
RTVSPropertyOp4
 70
     1
102
RTVSPropertyOp5
 70
     1
102
RTVSPropertyOp6
 70
     1
102
RTVSPropertyOp7
 70
     1
102
RTVSPropertyOp8
 70
     1
102
RTVSPropertyOp9
 70
     1
102
RTVSPropertyOp10
 70
     1
102
RTVSPropertyOp11
 70
     1
102
RTVSPropertyOp12
 70
     1
102
RTVSPropertyOp13
 70
     1
102
RTVSPropertyOp14
 70
     1
102
RTVSPropertyOp15
 70
     1
102
RTVSPropertyOp16
 70
     1
102
RTVSPropertyOp17
 70
     1
102
RTVSPropertyOp18
 70
     1
102
RTVSPropertyOp19
 70
     1
102
RTVSPropertyOp20
 70
     1
102
RTVSPropertyOp21
 70
     1
102
RTVSPropertyOp22
 70
     1
102
RTVSPropertyOp23
 70
     1
102
RTVSPropertyOp24
 70
     1
102
RTVSPropertyOp25
 70
     1
102
RTVSPropertyOp26
 70
     1
102
RTVSPropertyOp27
 70
     1
102
RTVSPropertyOp28
 70
     1
102
RTVSPropertyOp29
 70
     1
102
RTVSPropertyOp30
 70
     1
102
RTVSPropertyOp31
 70
     1
102
RTVSPropertyOp32
 70
     1
  0
XRECORD
  5
8AE
102
{ACAD_REACTORS
330
8AD
102
}
330
8AD
100
AcDbXrecord
280
     1
102
RTVSPropertyOp0
 70
     1
102
RTVSPropertyOp1
 70
     1
102
RTVSPropertyOp2
 70
     1
102
RTVSPropertyOp3
 70
     1
102
RTVSPropertyOp4
 70
     1
102
RTVSPropertyOp5
 70
     1
102
RTVSPropertyOp6
 70
     1
102
RTVSPropertyOp7
 70
     1
102
RTVSPropertyOp8
 70
     1
102
RTVSPropertyOp9
 70
     1
102
RTVSPropertyOp10
 70
     1
102
RTVSPropertyOp11
 70
     1
102
RTVSPropertyOp12
 70
     1
102
RTVSPropertyOp13
 70
     1
102
RTVSPropertyOp14
 70
     1
102
RTVSPropertyOp15
 70
     1
102
RTVSPropertyOp16
 70
     1
102
RTVSPropertyOp17
 70
     1
102
RTVSPropertyOp18
 70
     1
102
RTVSPropertyOp19
 70
     1
102
RTVSPropertyOp20
 70
     1
102
RTVSPropertyOp21
 70
     1
102
RTVSPropertyOp22
 70
     1
102
RTVSPropertyOp23
 70
     1
102
RTVSPropertyOp24
 70
     1
102
RTVSPropertyOp25
 70
     1
102
RTVSPropertyOp26
 70
     1
102
RTVSPropertyOp27
 70
     1
102
RTVSPropertyOp28
 70
     1
102
RTVSPropertyOp29
 70
     1
102
RTVSPropertyOp30
 70
     1
102
RTVSPropertyOp31
 70
     1
102
RTVSPropertyOp32
 70
     1
  0
XRECORD
  5
8A4
102
{ACAD_REACTORS
330
8A3
102
}
330
8A3
100
AcDbXrecord
280
     1
102
RTVSPropertyOp0
 70
     1
102
RTVSPropertyOp1
 70
     1
102
RTVSPropertyOp2
 70
     1
102
RTVSPropertyOp3
 70
     1
102
RTVSPropertyOp4
 70
     1
102
RTVSPropertyOp5
 70
     1
102
RTVSPropertyOp6
 70
     1
102
RTVSPropertyOp7
 70
     1
102
RTVSPropertyOp8
 70
     1
102
RTVSPropertyOp9
 70
     1
102
RTVSPropertyOp10
 70
     1
102
RTVSPropertyOp11
 70
     1
102
RTVSPropertyOp12
 70
     1
102
RTVSPropertyOp13
 70
     1
102
RTVSPropertyOp14
 70
     1
102
RTVSPropertyOp15
 70
     1
102
RTVSPropertyOp16
 70
     1
102
RTVSPropertyOp17
 70
     1
102
RTVSPropertyOp18
 70
     1
102
RTVSPropertyOp19
 70
     1
102
RTVSPropertyOp20
 70
     1
102
RTVSPropertyOp21
 70
     1
102
RTVSPropertyOp22
 70
     1
102
RTVSPropertyOp23
 70
     1
102
RTVSPropertyOp24
 70
     1
102
RTVSPropertyOp25
 70
     1
102
RTVSPropertyOp26
 70
     1
102
RTVSPropertyOp27
 70
     1
102
RTVSPropertyOp28
 70
     1
102
RTVSPropertyOp29
 70
     1
102
RTVSPropertyOp30
 70
     1
102
RTVSPropertyOp31
 70
     1
102
RTVSPropertyOp32
 70
     1
  0
XRECORD
  5
898
102
{ACAD_REACTORS
330
897
102
}
330
897
100
AcDbXrecord
280
     1
102
RTVSPropertyOp0
 70
     1
102
RTVSPropertyOp1
 70
     1
102
RTVSPropertyOp2
 70
     1
102
RTVSPropertyOp3
 70
     1
102
RTVSPropertyOp4
 70
     1
102
RTVSPropertyOp5
 70
     1
102
RTVSPropertyOp6
 70
     1
102
RTVSPropertyOp7
 70
     1
102
RTVSPropertyOp8
 70
     1
102
RTVSPropertyOp9
 70
     1
102
RTVSPropertyOp10
 70
     1
102
RTVSPropertyOp11
 70
     1
102
RTVSPropertyOp12
 70
     1
102
RTVSPropertyOp13
 70
     1
102
RTVSPropertyOp14
 70
     1
102
RTVSPropertyOp15
 70
     1
102
RTVSPropertyOp16
 70
     1
102
RTVSPropertyOp17
 70
     1
102
RTVSPropertyOp18
 70
     1
102
RTVSPropertyOp19
 70
     1
102
RTVSPropertyOp20
 70
     1
102
RTVSPropertyOp21
 70
     1
102
RTVSPropertyOp22
 70
     1
102
RTVSPropertyOp23
 70
     1
102
RTVSPropertyOp24
 70
     1
102
RTVSPropertyOp25
 70
     1
102
RTVSPropertyOp26
 70
     1
102
RTVSPropertyOp27
 70
     1
102
RTVSPropertyOp28
 70
     1
102
RTVSPropertyOp29
 70
     1
102
RTVSPropertyOp30
 70
     1
102
RTVSPropertyOp31
 70
     1
102
RTVSPropertyOp32
 70
     1
  0
XRECORD
  5
8B0
102
{ACAD_REACTORS
330
8AF
102
}
330
8AF
100
AcDbXrecord
280
     1
102
RTVSPropertyOp0
 70
     1
102
RTVSPropertyOp1
 70
     1
102
RTVSPropertyOp2
 70
     1
102
RTVSPropertyOp3
 70
     1
102
RTVSPropertyOp4
 70
     1
102
RTVSPropertyOp5
 70
     1
102
RTVSPropertyOp6
 70
     1
102
RTVSPropertyOp7
 70
     1
102
RTVSPropertyOp8
 70
     1
102
RTVSPropertyOp9
 70
     1
102
RTVSPropertyOp10
 70
     1
102
RTVSPropertyOp11
 70
     1
102
RTVSPropertyOp12
 70
     1
102
RTVSPropertyOp13
 70
     1
102
RTVSPropertyOp14
 70
     1
102
RTVSPropertyOp15
 70
     1
102
RTVSPropertyOp16
 70
     1
102
RTVSPropertyOp17
 70
     1
102
RTVSPropertyOp18
 70
     1
102
RTVSPropertyOp19
 70
     1
102
RTVSPropertyOp20
 70
     1
102
RTVSPropertyOp21
 70
     1
102
RTVSPropertyOp22
 70
     1
102
RTVSPropertyOp23
 70
     1
102
RTVSPropertyOp24
 70
     1
102
RTVSPropertyOp25
 70
     1
102
RTVSPropertyOp26
 70
     1
102
RTVSPropertyOp27
 70
     1
102
RTVSPropertyOp28
 70
     1
102
RTVSPropertyOp29
 70
     1
102
RTVSPropertyOp30
 70
     1
102
RTVSPropertyOp31
 70
     1
102
RTVSPropertyOp32
 70
     1
  0
ENDSEC
  0
EOF
