  0
SECTION
  2
HEADER
  9
$ACADVER
  1
AC1015
  9
$ACADMAINTVER
 70
    20
  9
$DWGCODEPAGE
  3
ANSI_932
  9
$INSBASE
 10
0.0
 20
0.0
 30
0.0
  9
$EXTMIN
 10
342.012023
 20
11.780796
 30
0.0
  9
$EXTMAX
 10
534.012023
 20
292.902925
 30
0.0
  9
$LIMMIN
 10
342.011024
 20
11.779796
  9
$LIMMAX
 10
534.0130239999998
 20
292.903924
  9
$ORTHOMODE
 70
     1
  9
$REGENMODE
 70
     1
  9
$FILLMODE
 70
     1
  9
$QTEXTMODE
 70
     0
  9
$MIRRTEXT
 70
     0
  9
$LTSCALE
 40
4.685369
  9
$ATTMODE
 70
     1
  9
$TEXTSIZE
 40
3.2
  9
$TRACEWID
 40
0.05
  9
$TEXTSTYLE
  7
高3.2
  9
$CLAYER
  8
0
  9
$CELTYPE
  6
CONTINUOUS
  9
$CECOLOR
 62
   256
  9
$CELTSCALE
 40
1.0
  9
$DISPSILH
 70
     0
  9
$DIMSCALE
 40
1.0
  9
$DIMASZ
 40
2.5
  9
$DIMEXO
 40
0.25
  9
$DIMDLI
 40
0.2
  9
$DIMRND
 40
0.0
  9
$DIMDLE
 40
0.0
  9
$DIMEXE
 40
1.25
  9
$DIMTP
 40
0.0
  9
$DIMTM
 40
0.0
  9
$DIMTXT
 40
3.0
  9
$DIMCEN
 40
0.0
  9
$DIMTSZ
 40
0.0
  9
$DIMTOL
 70
     0
  9
$DIMLIM
 70
     0
  9
$DIMTIH
 70
     0
  9
$DIMTOH
 70
     0
  9
$DIMSE1
 70
     0
  9
$DIMSE2
 70
     0
  9
$DIMTAD
 70
     3
  9
$DIMZIN
 70
     8
  9
$DIMBLK
  1
Open30
  9
$DIMASO
 70
     1
  9
$DIMSHO
 70
     1
  9
$DIMPOST
  1

  9
$DIMAPOST
  1

  9
$DIMALT
 70
     0
  9
$DIMALTD
 70
     3
  9
$DIMALTF
 40
0.03937007874016
  9
$DIMLFAC
 40
1.0
  9
$DIMTOFL
 70
     1
  9
$DIMTVP
 40
0.0
  9
$DIMTIX
 70
     0
  9
$DIMSOXD
 70
     0
  9
$DIMSAH
 70
     0
  9
$DIMBLK1
  1

  9
$DIMBLK2
  1

  9
$DIMSTYLE
  2
1：1
  9
$DIMCLRD
 70
     0
  9
$DIMCLRE
 70
     0
  9
$DIMCLRT
 70
     4
  9
$DIMTFAC
 40
1.0
  9
$DIMGAP
 40
0.625
  9
$DIMJUST
 70
     0
  9
$DIMSD1
 70
     0
  9
$DIMSD2
 70
     0
  9
$DIMTOLJ
 70
     0
  9
$DIMTZIN
 70
     8
  9
$DIMALTZ
 70
     0
  9
$DIMALTTZ
 70
     0
  9
$DIMUPT
 70
     1
  9
$DIMDEC
 70
     2
  9
$DIMTDEC
 70
     2
  9
$DIMALTU
 70
     2
  9
$DIMALTTD
 70
     3
  9
$DIMTXSTY
  7
STANDARD
  9
$DIMAUNIT
 70
     0
  9
$DIMADEC
 70
     1
  9
$DIMALTRND
 40
0.0
  9
$DIMAZIN
 70
     2
  9
$DIMDSEP
 70
    46
  9
$DIMATFIT
 70
     0
  9
$DIMFRAC
 70
     0
  9
$DIMLDRBLK
  1
Open30
  9
$DIMLUNIT
 70
     2
  9
$DIMLWD
 70
    -2
  9
$DIMLWE
 70
    -2
  9
$DIMTMOVE
 70
     0
  9
$LUNITS
 70
     2
  9
$LUPREC
 70
     4
  9
$SKETCHINC
 40
0.1
  9
$FILLETRAD
 40
1.0
  9
$AUNITS
 70
     0
  9
$AUPREC
 70
     0
  9
$MENU
  1
.
  9
$ELEVATION
 40
0.0
  9
$PELEVATION
 40
0.0
  9
$THICKNESS
 40
0.0
  9
$LIMCHECK
 70
     0
  9
$CHAMFERA
 40
0.0
  9
$CHAMFERB
 40
0.0
  9
$CHAMFERC
 40
0.0
  9
$CHAMFERD
 40
0.0
  9
$SKPOLY
 70
     0
  9
$TDCREATE
 40
2456071.583394271
  9
$TDUCREATE
 40
2456071.208394271
  9
$TDUPDATE
 40
2457630.492907385
  9
$TDUUPDATE
 40
2457630.117907385
  9
$TDINDWG
 40
0.2643479977
  9
$TDUSRTIMER
 40
0.2643468866
  9
$USRTIMER
 70
     1
  9
$ANGBASE
 50
0.0
  9
$ANGDIR
 70
     0
  9
$PDMODE
 70
     0
  9
$PDSIZE
 40
0.0
  9
$PLINEWID
 40
0.0
  9
$SPLFRAME
 70
     0
  9
$SPLINETYPE
 70
     6
  9
$SPLINESEGS
 70
     8
  9
$HANDSEED
  5
195E
  9
$SURFTAB1
 70
     6
  9
$SURFTAB2
 70
     6
  9
$SURFTYPE
 70
     6
  9
$SURFU
 70
     6
  9
$SURFV
 70
     6
  9
$UCSBASE
  2

  9
$UCSNAME
  2

  9
$UCSORG
 10
0.0
 20
0.0
 30
0.0
  9
$UCSXDIR
 10
1.0
 20
0.0
 30
0.0
  9
$UCSYDIR
 10
0.0
 20
1.0
 30
0.0
  9
$UCSORTHOREF
  2

  9
$UCSORTHOVIEW
 70
     0
  9
$UCSORGTOP
 10
0.0
 20
0.0
 30
0.0
  9
$UCSORGBOTTOM
 10
0.0
 20
0.0
 30
0.0
  9
$UCSORGLEFT
 10
0.0
 20
0.0
 30
0.0
  9
$UCSORGRIGHT
 10
0.0
 20
0.0
 30
0.0
  9
$UCSORGFRONT
 10
0.0
 20
0.0
 30
0.0
  9
$UCSORGBACK
 10
0.0
 20
0.0
 30
0.0
  9
$PUCSBASE
  2

  9
$PUCSNAME
  2

  9
$PUCSORG
 10
0.0
 20
0.0
 30
0.0
  9
$PUCSXDIR
 10
1.0
 20
0.0
 30
0.0
  9
$PUCSYDIR
 10
0.0
 20
1.0
 30
0.0
  9
$PUCSORTHOREF
  2

  9
$PUCSORTHOVIEW
 70
     0
  9
$PUCSORGTOP
 10
0.0
 20
0.0
 30
0.0
  9
$PUCSORGBOTTOM
 10
0.0
 20
0.0
 30
0.0
  9
$PUCSORGLEFT
 10
0.0
 20
0.0
 30
0.0
  9
$PUCSORGRIGHT
 10
0.0
 20
0.0
 30
0.0
  9
$PUCSORGFRONT
 10
0.0
 20
0.0
 30
0.0
  9
$PUCSORGBACK
 10
0.0
 20
0.0
 30
0.0
  9
$USERI1
 70
     0
  9
$USERI2
 70
     0
  9
$USERI3
 70
     0
  9
$USERI4
 70
     0
  9
$USERI5
 70
     0
  9
$USERR1
 40
0.0
  9
$USERR2
 40
0.0
  9
$USERR3
 40
0.0
  9
$USERR4
 40
0.0
  9
$USERR5
 40
0.0
  9
$WORLDVIEW
 70
     1
  9
$SHADEDGE
 70
     3
  9
$SHADEDIF
 70
    70
  9
$TILEMODE
 70
     1
  9
$MAXACTVP
 70
    64
  9
$PINSBASE
 10
0.0
 20
0.0
 30
0.0
  9
$PLIMCHECK
 70
     0
  9
$PEXTMIN
 10
1.000000000000000E+20
 20
1.000000000000000E+20
 30
1.000000000000000E+20
  9
$PEXTMAX
 10
-1.000000000000000E+20
 20
-1.000000000000000E+20
 30
-1.000000000000000E+20
  9
$PLIMMIN
 10
0.0
 20
0.0
  9
$PLIMMAX
 10
12.0
 20
9.0
  9
$UNITMODE
 70
     0
  9
$VISRETAIN
 70
     1
  9
$PLINEGEN
 70
     0
  9
$PSLTSCALE
 70
     1
  9
$TREEDEPTH
 70
  3020
  9
$CMLSTYLE
  2
Standard
  9
$CMLJUST
 70
     0
  9
$CMLSCALE
 40
1.0
  9
$PROXYGRAPHICS
 70
     1
  9
$MEASUREMENT
 70
     0
  9
$CELWEIGHT
370
    -1
  9
$ENDCAPS
280
     0
  9
$JOINSTYLE
280
     0
  9
$LWDISPLAY
290
     0
  9
$INSUNITS
 70
     0
  9
$HYPERLINKBASE
  1

  9
$STYLESHEET
  1
N-PLOT.CTB
  9
$XEDIT
290
     1
  9
$CEPSNTYPE
380
     0
  9
$PSTYLEMODE
290
     1
  9
$FINGERPRINTGUID
  2
{AF900223-9014-4B2C-81C1-98185A3C4833}
  9
$VERSIONGUID
  2
{FF239CEC-4165-47F1-8746-E4B34E47C881}
  9
$EXTNAMES
290
     1
  9
$PSVPSCALE
 40
0.0
  9
$OLESTARTUP
290
     0
  0
ENDSEC
  0
SECTION
  2
CLASSES
  0
CLASS
  1
ACDBDICTIONARYWDFLT
  2
AcDbDictionaryWithDefault
  3
ObjectDBX Classes
 90
        0
280
     0
281
     0
  0
CLASS
  1
MATERIAL
  2
AcDbMaterial
  3
ObjectDBX Classes
 90
     1153
280
     0
281
     0
  0
CLASS
  1
VISUALSTYLE
  2
AcDbVisualStyle
  3
ObjectDBX Classes
 90
     4095
280
     0
281
     0
  0
CLASS
  1
SCALE
  2
AcDbScale
  3
ObjectDBX Classes
 90
     1153
280
     0
281
     0
  0
CLASS
  1
TABLESTYLE
  2
AcDbTableStyle
  3
ObjectDBX Classes
 90
     4095
280
     0
281
     0
  0
CLASS
  1
MLEADERSTYLE
  2
AcDbMLeaderStyle
  3
ACDB_MLEADERSTYLE_CLASS
 90
     4095
280
     0
281
     0
  0
CLASS
  1
SORTENTSTABLE
  2
AcDbSortentsTable
  3
ObjectDBX Classes
 90
        0
280
     0
281
     0
  0
CLASS
  1
DICTIONARYVAR
  2
AcDbDictionaryVar
  3
ObjectDBX Classes
 90
        0
280
     0
281
     0
  0
CLASS
  1
CELLSTYLEMAP
  2
AcDbCellStyleMap
  3
ObjectDBX Classes
 90
     1152
280
     0
281
     0
  0
CLASS
  1
ACDBPLACEHOLDER
  2
AcDbPlaceHolder
  3
ObjectDBX Classes
 90
        0
280
     0
281
     0
  0
CLASS
  1
LAYOUT
  2
AcDbLayout
  3
ObjectDBX Classes
 90
        0
280
     0
281
     0
  0
ENDSEC
  0
SECTION
  2
TABLES
  0
TABLE
  2
VPORT
  5
8
330
0
100
AcDbSymbolTable
 70
     1
  0
VPORT
  5
8B
330
8
100
AcDbSymbolTableRecord
100
AcDbViewportTableRecord
  2
*Active
 70
     0
 10
0.0
 20
0.0
 11
1.0
 21
1.0
 12
575.7806216673375
 22
145.8000585766523
 13
0.0
 23
0.0
 14
1.0
 24
1.0
 15
0.0
 25
0.0
 16
0.0
 26
0.0
 36
1.0
 17
0.0
 27
0.0
 37
0.0
 40
531.6450161055501
 41
1.682148040638606
 42
50.0
 43
0.0
 44
0.0
 50
0.0
 51
0.0
 71
     0
 72
   100
 73
     1
 74
     1
 75
     0
 76
     0
 77
     0
 78
     0
281
     0
 65
     1
110
0.0
120
0.0
130
0.0
111
1.0
121
0.0
131
0.0
112
0.0
122
1.0
132
0.0
 79
     0
146
0.0
  0
ENDTAB
  0
TABLE
  2
LTYPE
  5
5
330
0
100
AcDbSymbolTable
 70
     2
  0
LTYPE
  5
5A
330
5
100
AcDbSymbolTableRecord
100
AcDbLinetypeTableRecord
  2
ByBlock
 70
     0
  3

 72
    65
 73
     0
 40
0.0
  0
LTYPE
  5
5B
330
5
100
AcDbSymbolTableRecord
100
AcDbLinetypeTableRecord
  2
ByLayer
 70
     0
  3

 72
    65
 73
     0
 40
0.0
  0
LTYPE
  5
5C
330
5
100
AcDbSymbolTableRecord
100
AcDbLinetypeTableRecord
  2
CONTINUOUS
 70
     0
  3
Solid-line
 72
    65
 73
     0
 40
0.0
  0
LTYPE
  5
72
330
5
100
AcDbSymbolTableRecord
100
AcDbLinetypeTableRecord
  2
CENTER
 70
     0
  3
CENTER
 72
    65
 73
     4
 40
2.0
 49
1.25
 74
     0
 49
-0.25
 74
     0
 49
0.25
 74
     0
 49
-0.25
 74
     0
  0
ENDTAB
  0
TABLE
  2
LAYER
  5
2
102
{ACAD_XDICTIONARY
360
3EB
102
}
330
0
100
AcDbSymbolTable
 70
     2
  0
LAYER
  5
54
102
{ACAD_XDICTIONARY
360
544
102
}
330
2
100
AcDbSymbolTableRecord
100
AcDbLayerTableRecord
  2
0
 70
     0
 62
     7
  6
CONTINUOUS
370
    -3
390
F
  0
LAYER
  5
3D6
330
2
100
AcDbSymbolTableRecord
100
AcDbLayerTableRecord
  2
Defpoints
 70
     0
 62
     7
  6
CONTINUOUS
290
     0
370
    -3
390
F
  0
ENDTAB
  0
TABLE
  2
STYLE
  5
3
330
0
100
AcDbSymbolTable
 70
     6
  0
STYLE
  5
55
330
3
100
AcDbSymbolTableRecord
100
AcDbTextStyleTableRecord
  2
STANDARD
 70
     0
 40
0.0
 41
1.0
 50
0.0
 71
     0
 42
0.2
  3
TXT
  4
BIGFONT
  0
STYLE
  5
3D7
330
3
100
AcDbSymbolTableRecord
100
AcDbTextStyleTableRecord
  2
高3.2
 70
     0
 40
3.2
 41
1.0
 50
0.0
 71
     0
 42
3.2
  3
txt.shx
  4
bigfont.shx
  0
STYLE
  5
3D8
330
3
100
AcDbSymbolTableRecord
100
AcDbTextStyleTableRecord
  2
高6.3
 70
     0
 40
6.299999999999998
 41
1.0
 50
0.0
 71
     0
 42
6.299999999999998
  3
txt.shx
  4
bigfont.shx
  0
STYLE
  5
3D9
330
3
100
AcDbSymbolTableRecord
100
AcDbTextStyleTableRecord
  2
高2.5
 70
     0
 40
2.5
 41
1.0
 50
0.0
 71
     0
 42
0.2
  3
txt.shx
  4
bigfont.shx
  0
STYLE
  5
3DA
330
3
100
AcDbSymbolTableRecord
100
AcDbTextStyleTableRecord
  2
高4.5
 70
     0
 40
4.5
 41
1.0
 50
0.0
 71
     0
 42
6.299999999999998
  3
txt.shx
  4
bigfont.shx
  0
STYLE
  5
3DB
330
3
100
AcDbSymbolTableRecord
100
AcDbTextStyleTableRecord
  2
高2
 70
     0
 40
2.0
 41
1.0
 50
0.0
 71
     0
 42
2.0
  3
txt.shx
  4
bigfont.shx
  0
ENDTAB
  0
TABLE
  2
VIEW
  5
6
330
0
100
AcDbSymbolTable
 70
     0
  0
ENDTAB
  0
TABLE
  2
UCS
  5
7
330
0
100
AcDbSymbolTable
 70
     0
  0
ENDTAB
  0
TABLE
  2
APPID
  5
9
330
0
100
AcDbSymbolTable
 70
    11
  0
APPID
  5
56
330
9
100
AcDbSymbolTableRecord
100
AcDbRegAppTableRecord
  2
ACAD
 70
     0
  0
APPID
  5
5D
330
9
100
AcDbSymbolTableRecord
100
AcDbRegAppTableRecord
  2
AcadAnnotative
 70
     0
  0
APPID
  5
3E6
330
9
100
AcDbSymbolTableRecord
100
AcDbRegAppTableRecord
  2
ACAD_DSTYLE_DIMJOGGED_JOGANGLE_SYMBOL
 70
     0
  0
APPID
  5
3E7
330
9
100
AcDbSymbolTableRecord
100
AcDbRegAppTableRecord
  2
ACAD_DSTYLE_DIMJAG
 70
     0
  0
APPID
  5
3E8
330
9
100
AcDbSymbolTableRecord
100
AcDbRegAppTableRecord
  2
ACAD_DSTYLE_DIMBREAK
 70
     0
  0
APPID
  5
3E9
330
9
100
AcDbSymbolTableRecord
100
AcDbRegAppTableRecord
  2
ACAD_DSTYLE_DIMTALN
 70
     0
  0
APPID
  5
52A
330
9
100
AcDbSymbolTableRecord
100
AcDbRegAppTableRecord
  2
ACAD_EXEMPT_FROM_CAD_STANDARDS
 70
     0
  0
APPID
  5
595
330
9
100
AcDbSymbolTableRecord
100
AcDbRegAppTableRecord
  2
ACAD_PSEXT
 70
     0
  0
APPID
  5
5E7
330
9
100
AcDbSymbolTableRecord
100
AcDbRegAppTableRecord
  2
ACAD_MLEADERVER
 70
     0
  0
APPID
  5
5EC
330
9
100
AcDbSymbolTableRecord
100
AcDbRegAppTableRecord
  2
ACAD_DSTYLE_DIMARC_LENGTH_SYMBOL
 70
     0
  0
APPID
  5
5ED
330
9
100
AcDbSymbolTableRecord
100
AcDbRegAppTableRecord
  2
ACAD_DSTYLE_DIMEXT_LENGTH
 70
     0
  0
ENDTAB
  0
TABLE
  2
DIMSTYLE
  5
A
330
0
100
AcDbSymbolTable
 70
     4
100
AcDbDimStyleTable
 71
     2
340
3DC
340
57
  0
DIMSTYLE
105
57
330
A
100
AcDbSymbolTableRecord
100
AcDbDimStyleTableRecord
  2
Standard
 70
     0
340
55
  0
DIMSTYLE
105
3DC
330
A
100
AcDbSymbolTableRecord
100
AcDbDimStyleTableRecord
  2
1：1
 70
     0
 41
2.5
 42
0.25
 43
0.2
 44
1.25
 73
     0
 74
     0
 77
     3
 78
     8
 79
     2
140
3.0
141
0.0
143
0.03937007874016
147
0.625
171
     3
172
     1
178
     4
179
     1
271
     2
272
     2
274
     3
283
     0
284
     8
288
     1
289
     0
340
55
341
346
342
346
1001
ACAD_DSTYLE_DIMARC_LENGTH_SYMBOL
1070
   379
1070
     2
1001
ACAD_DSTYLE_DIMEXT_LENGTH
1070
   378
1040
1.25
1001
ACAD_DSTYLE_DIMJOGGED_JOGANGLE_SYMBOL
1070
   384
1040
1.570796326794896
  0
DIMSTYLE
105
1585
330
A
100
AcDbSymbolTableRecord
100
AcDbDimStyleTableRecord
  2
1／2
 70
     0
 41
2.5
 42
0.25
 43
0.2
 44
1.25
 73
     0
 74
     0
 77
     3
 78
     8
 79
     2
140
3.0
141
0.0
143
0.03937007874016
144
2.0
147
0.625
171
     3
172
     1
178
     4
179
     1
271
     2
272
     2
274
     3
283
     0
284
     8
288
     1
289
     0
340
55
341
346
342
346
1001
ACAD_DSTYLE_DIMARC_LENGTH_SYMBOL
1070
   379
1070
     2
1001
ACAD_DSTYLE_DIMEXT_LENGTH
1070
   378
1040
1.25
1001
ACAD_DSTYLE_DIMJOGGED_JOGANGLE_SYMBOL
1070
   384
1040
1.570796326794896
  0
DIMSTYLE
105
1640
330
A
100
AcDbSymbolTableRecord
100
AcDbDimStyleTableRecord
  2
1／3
 70
     0
 41
2.5
 42
0.25
 43
0.2
 44
1.25
 73
     0
 74
     0
 77
     3
 78
     8
 79
     2
140
3.0
141
0.0
143
0.03937007874016
144
3.0
147
0.625
171
     3
172
     1
178
     4
179
     1
271
     2
272
     2
274
     3
283
     0
284
     8
288
     1
289
     0
340
55
341
346
342
346
1001
ACAD_DSTYLE_DIMARC_LENGTH_SYMBOL
1070
   379
1070
     2
1001
ACAD_DSTYLE_DIMEXT_LENGTH
1070
   378
1040
1.25
1001
ACAD_DSTYLE_DIMJOGGED_JOGANGLE_SYMBOL
1070
   384
1040
1.570796326794896
  0
ENDTAB
  0
TABLE
  2
BLOCK_RECORD
  5
1
330
0
100
AcDbSymbolTable
 70
    11
  0
BLOCK_RECORD
  5
6B
102
{ACAD_XDICTIONARY
360
AE3
102
}
330
1
100
AcDbSymbolTableRecord
100
AcDbBlockTableRecord
  2
*Model_Space
340
6E
  0
BLOCK_RECORD
  5
67
330
1
100
AcDbSymbolTableRecord
100
AcDbBlockTableRecord
  2
*Paper_Space
340
6A
  0
BLOCK_RECORD
  5
346
330
1
100
AcDbSymbolTableRecord
100
AcDbBlockTableRecord
  2
_Open30
340
0
102
{BLKREFS
331
13D8
331
13D9
331
13E1
331
13E2
331
13EA
331
13EB
331
13F3
331
13F4
331
13FC
331
13FD
331
1836
331
1837
331
183F
331
1840
331
1848
331
1849
331
1851
331
1852
331
185A
331
185B
102
}
  0
BLOCK_RECORD
  5
B4C
330
1
100
AcDbSymbolTableRecord
100
AcDbBlockTableRecord
  2
*D1
340
0
  0
BLOCK_RECORD
  5
B59
330
1
100
AcDbSymbolTableRecord
100
AcDbBlockTableRecord
  2
*D2
340
0
  0
BLOCK_RECORD
  5
B66
330
1
100
AcDbSymbolTableRecord
100
AcDbBlockTableRecord
  2
*D3
340
0
  0
BLOCK_RECORD
  5
B85
330
1
100
AcDbSymbolTableRecord
100
AcDbBlockTableRecord
  2
*D4
340
0
  0
BLOCK_RECORD
  5
BE3
330
1
100
AcDbSymbolTableRecord
100
AcDbBlockTableRecord
  2
*D5
340
0
  0
BLOCK_RECORD
  5
14AF
330
1
100
AcDbSymbolTableRecord
100
AcDbBlockTableRecord
  2
*D6
340
0
  0
BLOCK_RECORD
  5
14BB
330
1
100
AcDbSymbolTableRecord
100
AcDbBlockTableRecord
  2
*D7
340
0
  0
BLOCK_RECORD
  5
14C7
330
1
100
AcDbSymbolTableRecord
100
AcDbBlockTableRecord
  2
*D8
340
0
  0
BLOCK_RECORD
  5
14D3
330
1
100
AcDbSymbolTableRecord
100
AcDbBlockTableRecord
  2
*D9
340
0
  0
BLOCK_RECORD
  5
14DF
330
1
100
AcDbSymbolTableRecord
100
AcDbBlockTableRecord
  2
*D10
340
0
  0
ENDTAB
  0
ENDSEC
  0
SECTION
  2
BLOCKS
  0
BLOCK
  5
6C
330
6B
100
AcDbEntity
  8
0
100
AcDbBlockBegin
  2
*Model_Space
 70
     0
 10
0.0
 20
0.0
 30
0.0
  3
*Model_Space
  1

  0
ENDBLK
  5
6D
330
6B
100
AcDbEntity
  8
0
100
AcDbBlockEnd
  0
BLOCK
  5
68
330
67
100
AcDbEntity
 67
     1
  8
0
100
AcDbBlockBegin
  2
*Paper_Space
 70
     0
 10
0.0
 20
0.0
 30
0.0
  3
*Paper_Space
  1

  0
ENDBLK
  5
69
330
67
100
AcDbEntity
 67
     1
  8
0
100
AcDbBlockEnd
  0
BLOCK
  5
347
330
346
100
AcDbEntity
  8
0
100
AcDbBlockBegin
  2
_Open30
 70
     0
 10
0.0
 20
0.0
 30
0.0
  3
_Open30
  1

  0
LINE
  5
348
330
346
100
AcDbEntity
  8
0
  6
ByBlock
 62
     0
370
    -2
100
AcDbLine
 10
-1.0
 20
0.267949
 30
0.0
 11
0.0
 21
0.0
 31
0.0
  0
LINE
  5
349
330
346
100
AcDbEntity
  8
0
  6
ByBlock
 62
     0
370
    -2
100
AcDbLine
 10
0.0
 20
0.0
 30
0.0
 11
-1.0
 21
-0.267949
 31
0.0
  0
LINE
  5
34A
330
346
100
AcDbEntity
  8
0
  6
ByBlock
 62
     0
370
    -2
100
AcDbLine
 10
0.0
 20
0.0
 30
0.0
 11
-1.0
 21
0.0
 31
0.0
  0
ENDBLK
  5
34B
330
346
100
AcDbEntity
  8
0
100
AcDbBlockEnd
  0
BLOCK
  5
B4D
330
B4C
100
AcDbEntity
  8
0
100
AcDbBlockBegin
  2
*D1
 70
     1
 10
0.0
 20
0.0
 30
0.0
  3
*D1
  1

  0
LINE
  5
13D5
330
B4C
100
AcDbEntity
  8
0
  6
Continuous
 62
     0
370
    -2
100
AcDbLine
 10
415.3875473819609
 20
93.18272099999992
 30
0.0
 11
362.3007049999206
 21
93.18272099999992
 31
0.0
  0
LINE
  5
13D6
330
B4C
100
AcDbEntity
  8
0
  6
Continuous
 62
     0
370
    -2
100
AcDbLine
 10
415.3875473819609
 20
221.1827209999999
 30
0.0
 11
362.3007049999206
 21
221.1827209999999
 31
0.0
  0
LINE
  5
13D7
330
B4C
100
AcDbEntity
  8
0
  6
Continuous
 62
     0
370
    -2
100
AcDbLine
 10
363.5507049999207
 20
95.68272099999992
 30
0.0
 11
363.5507049999207
 21
218.6827209999999
 31
0.0
  0
INSERT
  5
13D8
330
B4C
100
AcDbEntity
  8
0
  6
Continuous
 62
     0
370
    -2
100
AcDbBlockReference
  2
_Open30
 10
363.5507049999207
 20
93.18272099999992
 30
0.0
 41
2.5
 42
2.5
 43
2.5
 50
270.0
  0
INSERT
  5
13D9
330
B4C
100
AcDbEntity
  8
0
  6
Continuous
 62
     0
370
    -2
100
AcDbBlockReference
  2
_Open30
 10
363.5507049999207
 20
221.1827209999999
 30
0.0
 41
2.5
 42
2.5
 43
2.5
 50
90.0
  0
MTEXT
  5
13DA
330
B4C
100
AcDbEntity
  8
0
  6
Continuous
 62
     4
100
AcDbMText
 10
361.4257049999206
 20
158.7991674417777
 30
0.0
 40
3.0
 41
0.0
 71
     5
 72
     1
  1
128
 11
0.0000000000000001
 21
1.0
 31
0.0
 73
     1
 44
1.0
1001
ACAD
1000
MTEXTBEGIN
1070
    73
1070
     1
1070
    44
1040
1.0
1070
    74
1070
     0
1000
MTEXTEND
  0
POINT
  5
13DB
330
B4C
100
AcDbEntity
  8
Defpoints
  6
Continuous
 62
     0
100
AcDbPoint
 10
415.6375473819609
 20
93.18272099999992
 30
0.0
  0
POINT
  5
13DC
330
B4C
100
AcDbEntity
  8
Defpoints
  6
Continuous
 62
     0
100
AcDbPoint
 10
415.6375473819609
 20
221.1827209999999
 30
0.0
  0
POINT
  5
13DD
330
B4C
100
AcDbEntity
  8
Defpoints
  6
Continuous
 62
     0
100
AcDbPoint
 10
363.5507049999207
 20
221.1827209999999
 30
0.0
  0
ENDBLK
  5
B4E
330
B4C
100
AcDbEntity
  8
0
100
AcDbBlockEnd
  0
BLOCK
  5
B5A
330
B59
100
AcDbEntity
  8
0
100
AcDbBlockBegin
  2
*D2
 70
     1
 10
0.0
 20
0.0
 30
0.0
  3
*D2
  1

  0
LINE
  5
13DE
330
B59
100
AcDbEntity
  8
0
  6
Continuous
 62
     0
370
    -2
100
AcDbLine
 10
391.6375473819613
 20
156.182721
 30
0.0
 11
373.7355939552173
 21
156.182721
 31
0.0
  0
LINE
  5
13DF
330
B59
100
AcDbEntity
  8
0
  6
Continuous
 62
     0
370
    -2
100
AcDbLine
 10
415.3875473819609
 20
93.18272099999992
 30
0.0
 11
373.7355939552173
 21
93.18272099999992
 31
0.0
  0
LINE
  5
13E0
330
B59
100
AcDbEntity
  8
0
  6
Continuous
 62
     0
370
    -2
100
AcDbLine
 10
374.9855939552173
 20
153.682721
 30
0.0
 11
374.9855939552173
 21
95.68272099999992
 31
0.0
  0
INSERT
  5
13E1
330
B59
100
AcDbEntity
  8
0
  6
Continuous
 62
     0
370
    -2
100
AcDbBlockReference
  2
_Open30
 10
374.9855939552173
 20
156.182721
 30
0.0
 41
2.5
 42
2.5
 43
2.5
 50
90.0
  0
INSERT
  5
13E2
330
B59
100
AcDbEntity
  8
0
  6
Continuous
 62
     0
370
    -2
100
AcDbBlockReference
  2
_Open30
 10
374.9855939552173
 20
93.18272099999992
 30
0.0
 41
2.5
 42
2.5
 43
2.5
 50
270.0
  0
MTEXT
  5
13E3
330
B59
100
AcDbEntity
  8
0
  6
Continuous
 62
     4
100
AcDbMText
 10
372.8605939552173
 20
123.2211282981684
 30
0.0
 40
3.0
 41
0.0
 71
     5
 72
     1
  1
63
 11
0.0000000000000001
 21
1.0
 31
0.0
 73
     1
 44
1.0
1001
ACAD
1000
MTEXTBEGIN
1070
    73
1070
     1
1070
    44
1040
1.0
1070
    74
1070
     0
1000
MTEXTEND
  0
POINT
  5
13E4
330
B59
100
AcDbEntity
  8
Defpoints
  6
Continuous
 62
     0
100
AcDbPoint
 10
391.8875473819613
 20
156.182721
 30
0.0
  0
POINT
  5
13E5
330
B59
100
AcDbEntity
  8
Defpoints
  6
Continuous
 62
     0
100
AcDbPoint
 10
415.6375473819609
 20
93.18272099999992
 30
0.0
  0
POINT
  5
13E6
330
B59
100
AcDbEntity
  8
Defpoints
  6
Continuous
 62
     0
100
AcDbPoint
 10
374.9855939552173
 20
93.18272099999992
 30
0.0
  0
ENDBLK
  5
B5B
330
B59
100
AcDbEntity
  8
0
100
AcDbBlockEnd
  0
BLOCK
  5
B67
330
B66
100
AcDbEntity
  8
0
100
AcDbBlockBegin
  2
*D3
 70
     1
 10
0.0
 20
0.0
 30
0.0
  3
*D3
  1

  0
LINE
  5
13E7
330
B66
100
AcDbEntity
  8
0
  6
Continuous
 62
     0
370
    -2
100
AcDbLine
 10
388.1375473819609
 20
210.4327209999999
 30
0.0
 11
388.1375473819609
 21
244.8459513805162
 31
0.0
  0
LINE
  5
13E8
330
B66
100
AcDbEntity
  8
0
  6
Continuous
 62
     0
370
    -2
100
AcDbLine
 10
443.1375473819609
 20
210.4327209999999
 30
0.0
 11
443.1375473819609
 21
244.8459513805162
 31
0.0
  0
LINE
  5
13E9
330
B66
100
AcDbEntity
  8
0
  6
Continuous
 62
     0
370
    -2
100
AcDbLine
 10
390.6375473819609
 20
243.5959513805162
 30
0.0
 11
440.6375473819609
 21
243.5959513805162
 31
0.0
  0
INSERT
  5
13EA
330
B66
100
AcDbEntity
  8
0
  6
Continuous
 62
     0
370
    -2
100
AcDbBlockReference
  2
_Open30
 10
388.1375473819609
 20
243.5959513805162
 30
0.0
 41
2.5
 42
2.5
 43
2.5
 50
180.0
  0
INSERT
  5
13EB
330
B66
100
AcDbEntity
  8
0
  6
Continuous
 62
     0
370
    -2
100
AcDbBlockReference
  2
_Open30
 10
443.1375473819609
 20
243.5959513805162
 30
0.0
 41
2.5
 42
2.5
 43
2.5
  0
MTEXT
  5
13EC
330
B66
100
AcDbEntity
  8
0
  6
Continuous
 62
     4
100
AcDbMText
 10
415.6375473819609
 20
245.7209513805162
 30
0.0
 40
3.0
 41
0.0
 71
     5
 72
     1
  1
%%C55
 73
     1
 44
1.0
1001
ACAD
1000
MTEXTBEGIN
1070
    73
1070
     1
1070
    44
1040
1.0
1070
    74
1070
     0
1000
MTEXTEND
  0
POINT
  5
13ED
330
B66
100
AcDbEntity
  8
Defpoints
  6
Continuous
 62
     0
100
AcDbPoint
 10
388.1375473819609
 20
210.1827209999999
 30
0.0
  0
POINT
  5
13EE
330
B66
100
AcDbEntity
  8
Defpoints
  6
Continuous
 62
     0
100
AcDbPoint
 10
443.1375473819609
 20
210.1827209999999
 30
0.0
  0
POINT
  5
13EF
330
B66
100
AcDbEntity
  8
Defpoints
  6
Continuous
 62
     0
100
AcDbPoint
 10
443.1375473819609
 20
243.5959513805162
 30
0.0
  0
ENDBLK
  5
B68
330
B66
100
AcDbEntity
  8
0
100
AcDbBlockEnd
  0
BLOCK
  5
B86
330
B85
100
AcDbEntity
  8
0
100
AcDbBlockBegin
  2
*D4
 70
     1
 10
0.0
 20
0.0
 30
0.0
  3
*D4
  1

  0
LINE
  5
13F0
330
B85
100
AcDbEntity
  8
0
  6
Continuous
 62
     0
370
    -2
100
AcDbLine
 10
402.6435658819608
 20
103.3131040000003
 30
0.0
 11
402.6435658819608
 21
79.0799134814614
 31
0.0
  0
LINE
  5
13F1
330
B85
100
AcDbEntity
  8
0
  6
Continuous
 62
     0
370
    -2
100
AcDbLine
 10
428.6359338819608
 20
101.3131040000002
 30
0.0
 11
428.6359338819608
 21
79.0799134814614
 31
0.0
  0
LINE
  5
13F2
330
B85
100
AcDbEntity
  8
0
  6
Continuous
 62
     0
370
    -2
100
AcDbLine
 10
405.1435658819608
 20
80.3299134814614
 30
0.0
 11
426.1359338819608
 21
80.3299134814614
 31
0.0
  0
INSERT
  5
13F3
330
B85
100
AcDbEntity
  8
0
  6
Continuous
 62
     0
370
    -2
100
AcDbBlockReference
  2
_Open30
 10
402.6435658819608
 20
80.3299134814614
 30
0.0
 41
2.5
 42
2.5
 43
2.5
 50
180.0
  0
INSERT
  5
13F4
330
B85
100
AcDbEntity
  8
0
  6
Continuous
 62
     0
370
    -2
100
AcDbBlockReference
  2
_Open30
 10
428.6359338819608
 20
80.3299134814614
 30
0.0
 41
2.5
 42
2.5
 43
2.5
  0
MTEXT
  5
13F5
330
B85
100
AcDbEntity
  8
0
  6
Continuous
 62
     4
100
AcDbMText
 10
415.6397498819606
 20
82.4549134814614
 30
0.0
 40
3.0
 41
0.0
 71
     5
 72
     1
  1
E26
 73
     1
 44
1.0
1001
ACAD
1000
MTEXTBEGIN
1070
    73
1070
     1
1070
    44
1040
1.0
1070
    74
1070
     0
1000
MTEXTEND
  0
POINT
  5
13F6
330
B85
100
AcDbEntity
  8
Defpoints
  6
Continuous
 62
     0
100
AcDbPoint
 10
402.6435658819608
 20
103.5631040000003
 30
0.0
  0
POINT
  5
13F7
330
B85
100
AcDbEntity
  8
Defpoints
  6
Continuous
 62
     0
100
AcDbPoint
 10
428.6359338819608
 20
101.5631040000002
 30
0.0
  0
POINT
  5
13F8
330
B85
100
AcDbEntity
  8
Defpoints
  6
Continuous
 62
     0
100
AcDbPoint
 10
428.6359338819608
 20
80.3299134814614
 30
0.0
  0
ENDBLK
  5
B87
330
B85
100
AcDbEntity
  8
0
100
AcDbBlockEnd
  0
BLOCK
  5
BE4
330
BE3
100
AcDbEntity
  8
0
100
AcDbBlockBegin
  2
*D5
 70
     1
 10
0.0
 20
0.0
 30
0.0
  3
*D5
  1

  0
LINE
  5
13F9
330
BE3
100
AcDbEntity
  8
0
  6
Continuous
 62
     0
370
    -2
100
AcDbLine
 10
390.6375473819613
 20
132.932721
 30
0.0
 11
390.6375473819613
 21
71.90718855987221
 31
0.0
  0
LINE
  5
13FA
330
BE3
100
AcDbEntity
  8
0
  6
Continuous
 62
     0
370
    -2
100
AcDbLine
 10
440.6375473819609
 20
132.932721
 30
0.0
 11
440.6375473819609
 21
71.90718855987221
 31
0.0
  0
LINE
  5
13FB
330
BE3
100
AcDbEntity
  8
0
  6
Continuous
 62
     0
370
    -2
100
AcDbLine
 10
393.1375473819613
 20
73.15718855987221
 30
0.0
 11
438.1375473819609
 21
73.15718855987221
 31
0.0
  0
INSERT
  5
13FC
330
BE3
100
AcDbEntity
  8
0
  6
Continuous
 62
     0
370
    -2
100
AcDbBlockReference
  2
_Open30
 10
390.6375473819613
 20
73.15718855987221
 30
0.0
 41
2.5
 42
2.5
 43
2.5
 50
180.0
  0
INSERT
  5
13FD
330
BE3
100
AcDbEntity
  8
0
  6
Continuous
 62
     0
370
    -2
100
AcDbBlockReference
  2
_Open30
 10
440.6375473819609
 20
73.15718855987221
 30
0.0
 41
2.5
 42
2.5
 43
2.5
  0
MTEXT
  5
13FE
330
BE3
100
AcDbEntity
  8
0
  6
Continuous
 62
     4
100
AcDbMText
 10
415.6375473819609
 20
75.28218855987221
 30
0.0
 40
3.0
 41
0.0
 71
     5
 72
     1
  1
%%C50
 73
     1
 44
1.0
1001
ACAD
1000
MTEXTBEGIN
1070
    73
1070
     1
1070
    44
1040
1.0
1070
    74
1070
     0
1000
MTEXTEND
  0
POINT
  5
13FF
330
BE3
100
AcDbEntity
  8
Defpoints
  6
Continuous
 62
     0
100
AcDbPoint
 10
390.6375473819613
 20
133.182721
 30
0.0
  0
POINT
  5
1400
330
BE3
100
AcDbEntity
  8
Defpoints
  6
Continuous
 62
     0
100
AcDbPoint
 10
440.6375473819609
 20
133.182721
 30
0.0
  0
POINT
  5
1401
330
BE3
100
AcDbEntity
  8
Defpoints
  6
Continuous
 62
     0
100
AcDbPoint
 10
440.6375473819609
 20
73.15718855987221
 30
0.0
  0
ENDBLK
  5
BE5
330
BE3
100
AcDbEntity
  8
0
100
AcDbBlockEnd
  0
BLOCK
  5
14B0
330
14AF
100
AcDbEntity
  8
0
100
AcDbBlockBegin
  2
*D6
 70
     1
 10
0.0
 20
0.0
 30
0.0
  3
*D6
  1

  0
LINE
  5
183C
330
14AF
100
AcDbEntity
  8
0
  6
Continuous
 62
     0
370
    -2
100
AcDbLine
 10
387.7192368957617
 20
162.1827209999996
 30
0.0
 11
376.8362520762153
 21
162.1827209999996
 31
0.0
  0
LINE
  5
183D
330
14AF
100
AcDbEntity
  8
0
  6
Continuous
 62
     0
370
    -2
100
AcDbLine
 10
412.7192368957616
 20
93.18272099999992
 30
0.0
 11
376.8362520762152
 21
93.18272099999992
 31
0.0
  0
LINE
  5
183E
330
14AF
100
AcDbEntity
  8
0
  6
Continuous
 62
     0
370
    -2
100
AcDbLine
 10
378.0862520762152
 20
159.6827209999996
 30
0.0
 11
378.0862520762152
 21
95.68272099999992
 31
0.0
  0
INSERT
  5
183F
330
14AF
100
AcDbEntity
  8
0
  6
Continuous
 62
     0
370
    -2
100
AcDbBlockReference
  2
_Open30
 10
378.0862520762152
 20
162.1827209999996
 30
0.0
 41
2.5
 42
2.5
 43
2.5
 50
90.0
  0
INSERT
  5
1840
330
14AF
100
AcDbEntity
  8
0
  6
Continuous
 62
     0
370
    -2
100
AcDbBlockReference
  2
_Open30
 10
378.0862520762152
 20
93.18272099999992
 30
0.0
 41
2.5
 42
2.5
 43
2.5
 50
270.0
  0
MTEXT
  5
1841
330
14AF
100
AcDbEntity
  8
0
  6
Continuous
 62
     4
100
AcDbMText
 10
375.9612520762152
 20
127.6827209999998
 30
0.0
 40
3.0
 41
0.0
 71
     5
 72
     1
  1
69
 11
0.0000000000000001
 21
1.0
 31
0.0
 73
     1
 44
1.0
1001
ACAD
1000
MTEXTBEGIN
1070
    73
1070
     1
1070
    44
1040
1.0
1070
    74
1070
     0
1000
MTEXTEND
  0
POINT
  5
1842
330
14AF
100
AcDbEntity
  8
Defpoints
  6
Continuous
 62
     0
100
AcDbPoint
 10
387.9692368957617
 20
162.1827209999996
 30
0.0
  0
POINT
  5
1843
330
14AF
100
AcDbEntity
  8
Defpoints
  6
Continuous
 62
     0
100
AcDbPoint
 10
412.9692368957616
 20
93.18272099999992
 30
0.0
  0
POINT
  5
1844
330
14AF
100
AcDbEntity
  8
Defpoints
  6
Continuous
 62
     0
100
AcDbPoint
 10
378.0862520762152
 20
93.18272099999992
 30
0.0
  0
ENDBLK
  5
14B1
330
14AF
100
AcDbEntity
  8
0
100
AcDbBlockEnd
  0
BLOCK
  5
14BC
330
14BB
100
AcDbEntity
  8
0
100
AcDbBlockBegin
  2
*D7
 70
     1
 10
0.0
 20
0.0
 30
0.0
  3
*D7
  1

  0
LINE
  5
1845
330
14BB
100
AcDbEntity
  8
0
  6
Continuous
 62
     0
370
    -2
100
AcDbLine
 10
388.9692368957617
 20
163.4327209999999
 30
0.0
 11
388.9692368957617
 21
244.8459513805162
 31
0.0
  0
LINE
  5
1846
330
14BB
100
AcDbEntity
  8
0
  6
Continuous
 62
     0
370
    -2
100
AcDbLine
 10
436.9692368957617
 20
163.4327209999999
 30
0.0
 11
436.9692368957617
 21
244.8459513805162
 31
0.0
  0
LINE
  5
1847
330
14BB
100
AcDbEntity
  8
0
  6
Continuous
 62
     0
370
    -2
100
AcDbLine
 10
391.4692368957617
 20
243.5959513805162
 30
0.0
 11
434.4692368957616
 21
243.5959513805162
 31
0.0
  0
INSERT
  5
1848
330
14BB
100
AcDbEntity
  8
0
  6
Continuous
 62
     0
370
    -2
100
AcDbBlockReference
  2
_Open30
 10
388.9692368957617
 20
243.5959513805162
 30
0.0
 41
2.5
 42
2.5
 43
2.5
 50
180.0
  0
INSERT
  5
1849
330
14BB
100
AcDbEntity
  8
0
  6
Continuous
 62
     0
370
    -2
100
AcDbBlockReference
  2
_Open30
 10
436.9692368957617
 20
243.5959513805162
 30
0.0
 41
2.5
 42
2.5
 43
2.5
  0
MTEXT
  5
184A
330
14BB
100
AcDbEntity
  8
0
  6
Continuous
 62
     4
100
AcDbMText
 10
412.9692368957616
 20
245.7209513805162
 30
0.0
 40
3.0
 41
0.0
 71
     5
 72
     1
  1
%%C48
 73
     1
 44
1.0
1001
ACAD
1000
MTEXTBEGIN
1070
    73
1070
     1
1070
    44
1040
1.0
1070
    74
1070
     0
1000
MTEXTEND
  0
POINT
  5
184B
330
14BB
100
AcDbEntity
  8
Defpoints
  6
Continuous
 62
     0
100
AcDbPoint
 10
388.9692368957617
 20
163.1827209999999
 30
0.0
  0
POINT
  5
184C
330
14BB
100
AcDbEntity
  8
Defpoints
  6
Continuous
 62
     0
100
AcDbPoint
 10
436.9692368957617
 20
163.1827209999999
 30
0.0
  0
POINT
  5
184D
330
14BB
100
AcDbEntity
  8
Defpoints
  6
Continuous
 62
     0
100
AcDbPoint
 10
436.9692368957617
 20
243.5959513805162
 30
0.0
  0
ENDBLK
  5
14BD
330
14BB
100
AcDbEntity
  8
0
100
AcDbBlockEnd
  0
BLOCK
  5
14C8
330
14C7
100
AcDbEntity
  8
0
100
AcDbBlockBegin
  2
*D8
 70
     1
 10
0.0
 20
0.0
 30
0.0
  3
*D8
  1

  0
LINE
  5
184E
330
14C7
100
AcDbEntity
  8
0
  6
Continuous
 62
     0
370
    -2
100
AcDbLine
 10
399.9752553957618
 20
103.3131040000003
 30
0.0
 11
399.9752553957618
 21
79.0799134814614
 31
0.0
  0
LINE
  5
184F
330
14C7
100
AcDbEntity
  8
0
  6
Continuous
 62
     0
370
    -2
100
AcDbLine
 10
425.9676233957616
 20
101.3131040000002
 30
0.0
 11
425.9676233957616
 21
79.0799134814614
 31
0.0
  0
LINE
  5
1850
330
14C7
100
AcDbEntity
  8
0
  6
Continuous
 62
     0
370
    -2
100
AcDbLine
 10
402.4752553957616
 20
80.3299134814614
 30
0.0
 11
423.4676233957616
 21
80.3299134814614
 31
0.0
  0
INSERT
  5
1851
330
14C7
100
AcDbEntity
  8
0
  6
Continuous
 62
     0
370
    -2
100
AcDbBlockReference
  2
_Open30
 10
399.9752553957618
 20
80.3299134814614
 30
0.0
 41
2.5
 42
2.5
 43
2.5
 50
180.0
  0
INSERT
  5
1852
330
14C7
100
AcDbEntity
  8
0
  6
Continuous
 62
     0
370
    -2
100
AcDbBlockReference
  2
_Open30
 10
425.9676233957616
 20
80.3299134814614
 30
0.0
 41
2.5
 42
2.5
 43
2.5
  0
MTEXT
  5
1853
330
14C7
100
AcDbEntity
  8
0
  6
Continuous
 62
     4
100
AcDbMText
 10
412.9714393957613
 20
82.4549134814614
 30
0.0
 40
3.0
 41
0.0
 71
     5
 72
     1
  1
E26
 73
     1
 44
1.0
1001
ACAD
1000
MTEXTBEGIN
1070
    73
1070
     1
1070
    44
1040
1.0
1070
    74
1070
     0
1000
MTEXTEND
  0
POINT
  5
1854
330
14C7
100
AcDbEntity
  8
Defpoints
  6
Continuous
 62
     0
100
AcDbPoint
 10
399.9752553957618
 20
103.5631040000003
 30
0.0
  0
POINT
  5
1855
330
14C7
100
AcDbEntity
  8
Defpoints
  6
Continuous
 62
     0
100
AcDbPoint
 10
425.9676233957616
 20
101.5631040000002
 30
0.0
  0
POINT
  5
1856
330
14C7
100
AcDbEntity
  8
Defpoints
  6
Continuous
 62
     0
100
AcDbPoint
 10
425.9676233957616
 20
80.3299134814614
 30
0.0
  0
ENDBLK
  5
14C9
330
14C7
100
AcDbEntity
  8
0
100
AcDbBlockEnd
  0
BLOCK
  5
14D4
330
14D3
100
AcDbEntity
  8
0
100
AcDbBlockBegin
  2
*D9
 70
     1
 10
0.0
 20
0.0
 30
0.0
  3
*D9
  1

  0
LINE
  5
1857
330
14D3
100
AcDbEntity
  8
0
  6
Continuous
 62
     0
370
    -2
100
AcDbLine
 10
387.969236895762
 20
161.9327209999996
 30
0.0
 11
387.969236895762
 21
71.90718855987221
 31
0.0
  0
LINE
  5
1858
330
14D3
100
AcDbEntity
  8
0
  6
Continuous
 62
     0
370
    -2
100
AcDbLine
 10
437.9692368957616
 20
161.9327209999996
 30
0.0
 11
437.9692368957616
 21
71.90718855987221
 31
0.0
  0
LINE
  5
1859
330
14D3
100
AcDbEntity
  8
0
  6
Continuous
 62
     0
370
    -2
100
AcDbLine
 10
390.469236895762
 20
73.15718855987221
 30
0.0
 11
435.4692368957616
 21
73.15718855987221
 31
0.0
  0
INSERT
  5
185A
330
14D3
100
AcDbEntity
  8
0
  6
Continuous
 62
     0
370
    -2
100
AcDbBlockReference
  2
_Open30
 10
387.969236895762
 20
73.15718855987221
 30
0.0
 41
2.5
 42
2.5
 43
2.5
 50
180.0
  0
INSERT
  5
185B
330
14D3
100
AcDbEntity
  8
0
  6
Continuous
 62
     0
370
    -2
100
AcDbBlockReference
  2
_Open30
 10
437.9692368957616
 20
73.15718855987221
 30
0.0
 41
2.5
 42
2.5
 43
2.5
  0
MTEXT
  5
185C
330
14D3
100
AcDbEntity
  8
0
  6
Continuous
 62
     4
100
AcDbMText
 10
412.9692368957616
 20
75.28218855987221
 30
0.0
 40
3.0
 41
0.0
 71
     5
 72
     1
  1
%%C50
 73
     1
 44
1.0
1001
ACAD
1000
MTEXTBEGIN
1070
    73
1070
     1
1070
    44
1040
1.0
1070
    74
1070
     0
1000
MTEXTEND
  0
POINT
  5
185D
330
14D3
100
AcDbEntity
  8
Defpoints
  6
Continuous
 62
     0
100
AcDbPoint
 10
387.969236895762
 20
162.1827209999996
 30
0.0
  0
POINT
  5
185E
330
14D3
100
AcDbEntity
  8
Defpoints
  6
Continuous
 62
     0
100
AcDbPoint
 10
437.9692368957616
 20
162.1827209999996
 30
0.0
  0
POINT
  5
185F
330
14D3
100
AcDbEntity
  8
Defpoints
  6
Continuous
 62
     0
100
AcDbPoint
 10
437.9692368957616
 20
73.15718855987221
 30
0.0
  0
ENDBLK
  5
14D5
330
14D3
100
AcDbEntity
  8
0
100
AcDbBlockEnd
  0
BLOCK
  5
14E0
330
14DF
100
AcDbEntity
  8
0
100
AcDbBlockBegin
  2
*D10
 70
     1
 10
0.0
 20
0.0
 30
0.0
  3
*D10
  1

  0
LINE
  5
1833
330
14DF
100
AcDbEntity
  8
0
  6
Continuous
 62
     0
370
    -2
100
AcDbLine
 10
412.7192368957616
 20
93.18272099999992
 30
0.0
 11
368.6658551575627
 21
93.18272099999992
 31
0.0
  0
LINE
  5
1834
330
14DF
100
AcDbEntity
  8
0
  6
Continuous
 62
     0
370
    -2
100
AcDbLine
 10
412.7192368957616
 20
226.6827209999999
 30
0.0
 11
368.6658551575628
 21
226.6827209999999
 31
0.0
  0
LINE
  5
1835
330
14DF
100
AcDbEntity
  8
0
  6
Continuous
 62
     0
370
    -2
100
AcDbLine
 10
369.9158551575627
 20
95.68272099999992
 30
0.0
 11
369.9158551575628
 21
224.1827209999999
 31
0.0
  0
INSERT
  5
1836
330
14DF
100
AcDbEntity
  8
0
  6
Continuous
 62
     0
370
    -2
100
AcDbBlockReference
  2
_Open30
 10
369.9158551575627
 20
93.18272099999992
 30
0.0
 41
2.5
 42
2.5
 43
2.5
 50
270.0
  0
INSERT
  5
1837
330
14DF
100
AcDbEntity
  8
0
  6
Continuous
 62
     0
370
    -2
100
AcDbBlockReference
  2
_Open30
 10
369.9158551575628
 20
226.6827209999999
 30
0.0
 41
2.5
 42
2.5
 43
2.5
 50
90.0
  0
MTEXT
  5
1838
330
14DF
100
AcDbEntity
  8
0
  6
Continuous
 62
     4
100
AcDbMText
 10
367.7908551575627
 20
159.9327209999999
 30
0.0
 40
3.0
 41
0.0
 71
     5
 72
     1
  1
133.5
 11
0.0000000000000001
 21
1.0
 31
0.0
 73
     1
 44
1.0
1001
ACAD
1000
MTEXTBEGIN
1070
    73
1070
     1
1070
    44
1040
1.0
1070
    74
1070
     0
1000
MTEXTEND
  0
POINT
  5
1839
330
14DF
100
AcDbEntity
  8
Defpoints
  6
Continuous
 62
     0
100
AcDbPoint
 10
412.9692368957616
 20
93.18272099999992
 30
0.0
  0
POINT
  5
183A
330
14DF
100
AcDbEntity
  8
Defpoints
  6
Continuous
 62
     0
100
AcDbPoint
 10
412.9692368957616
 20
226.6827209999999
 30
0.0
  0
POINT
  5
183B
330
14DF
100
AcDbEntity
  8
Defpoints
  6
Continuous
 62
     0
100
AcDbPoint
 10
369.9158551575628
 20
226.6827209999999
 30
0.0
  0
ENDBLK
  5
14E1
330
14DF
100
AcDbEntity
  8
0
100
AcDbBlockEnd
  0
ENDSEC
  0
SECTION
  2
ENTITIES
  0
LINE
  5
BB
330
6B
100
AcDbEntity
  8
0
 62
     3
100
AcDbLine
 10
342.49995
 20
150.280796
 30
0.0
 11
342.012023
 21
150.280796
 31
0.0
  0
LINE
  5
BC
330
6B
100
AcDbEntity
  8
0
 62
     3
100
AcDbLine
 10
450.412023
 20
284.275407
 30
0.0
 11
534.012023
 21
284.275407
 31
0.0
  0
TEXT
  5
BD
330
6B
100
AcDbEntity
  8
0
 62
     3
100
AcDbText
 10
523.2870230000002
 20
280.130407
 30
0.0
 40
3.2
  1
担
  7
高3.2
100
AcDbText
  0
TEXT
  5
BE
330
6B
100
AcDbEntity
  8
0
 62
     3
100
AcDbText
 10
530.174523
 20
280.130407
 30
0.0
 40
3.2
  1
当
  7
高3.2
100
AcDbText
  0
TEXT
  5
BF
330
6B
100
AcDbEntity
  8
0
 62
     3
100
AcDbText
 10
483.091246
 20
280.113245
 30
0.0
 40
3.2
  1
変更・追記内容
  7
高3.2
100
AcDbText
  0
LINE
  5
C0
330
6B
100
AcDbEntity
  8
0
 62
     3
100
AcDbLine
 10
450.412023
 20
288.780796
 30
0.0
 11
450.412023
 21
269.4254069999999
 31
0.0
  0
TEXT
  5
C1
330
6B
100
AcDbEntity
  8
0
 62
     3
100
AcDbText
 10
454.8977975128623
 20
275.4445525866895
 30
0.0
 40
2.0
  1
1
  7
高2
100
AcDbText
  0
TEXT
  5
C2
330
6B
100
AcDbEntity
  8
0
 62
     3
100
AcDbText
 10
454.5320979825543
 20
270.2954593266921
 30
0.0
 40
2.0
  1
2
  7
高2
100
AcDbText
  0
TEXT
  5
C3
330
6B
100
AcDbEntity
  8
0
 62
     3
100
AcDbText
 10
463.3709719999997
 20
280.0660302798779
 30
0.0
 40
3.2
  1
日
  7
高3.2
100
AcDbText
  0
TEXT
  5
C4
330
6B
100
AcDbEntity
  8
0
 62
     3
100
AcDbText
 10
472.2478459999998
 20
280.0660302798779
 30
0.0
 40
3.2
  1
付
  7
高3.2
100
AcDbText
  0
TEXT
  5
C5
330
6B
100
AcDbEntity
  8
0
 62
     3
100
AcDbText
 10
463.1968129999998
 20
284.925407
 30
0.0
 40
3.2
  1
図
  7
高3.2
100
AcDbText
  0
TEXT
  5
C6
330
6B
100
AcDbEntity
  8
0
 62
     3
100
AcDbText
 10
481.8527079999998
 20
284.925407
 30
0.0
 40
3.2
  1
面
  7
高3.2
100
AcDbText
  0
TEXT
  5
C7
330
6B
100
AcDbEntity
  8
0
 62
     3
100
AcDbText
 10
500.508604
 20
284.925407
 30
0.0
 40
3.2
  1
略
  7
高3.2
100
AcDbText
  0
TEXT
  5
C8
330
6B
100
AcDbEntity
  8
0
 62
     3
100
AcDbText
 10
519.1644989999998
 20
284.925407
 30
0.0
 40
3.2
  1
歴
  7
高3.2
100
AcDbText
  0
TEXT
  5
C9
330
6B
100
AcDbEntity
  8
0
 62
     3
100
AcDbText
 10
451.014387
 20
280.050407
 30
0.0
 40
3.2
  1
記
  7
高3.2
100
AcDbText
  0
TEXT
  5
CA
330
6B
100
AcDbEntity
  8
0
 62
     3
100
AcDbText
 10
457.267294
 20
280.050407
 30
0.0
 40
3.2
  1
号
  7
高3.2
100
AcDbText
  0
LINE
  5
CB
330
6B
100
AcDbEntity
  8
0
 62
     3
100
AcDbLine
 10
534.0120229999999
 20
269.4254069999999
 30
0.0
 11
450.412023
 21
269.4254069999999
 31
0.0
  0
LINE
  5
CE
330
6B
100
AcDbEntity
  8
0
 62
     2
100
AcDbLine
 10
421.096375
 20
290.56824
 30
0.0
 11
421.532123
 21
290.340772
 31
0.0
  0
LINE
  5
CF
330
6B
100
AcDbEntity
  8
0
 62
     2
100
AcDbLine
 10
421.096375
 20
286.83761
 30
0.0
 11
421.532123
 21
287.065078
 31
0.0
  0
LINE
  5
D0
330
6B
100
AcDbEntity
  8
0
 62
     2
100
AcDbLine
 10
421.532123
 20
290.340772
 30
0.0
 11
421.532123
 21
287.065078
 31
0.0
  0
LINE
  5
D1
330
6B
100
AcDbEntity
  8
0
 62
     2
100
AcDbLine
 10
422.63564
 20
286.83761
 30
0.0
 11
422.1998919999998
 21
287.065078
 31
0.0
  0
LINE
  5
D2
330
6B
100
AcDbEntity
  8
0
 62
     2
100
AcDbLine
 10
422.1998919999998
 20
289.061937
 30
0.0
 11
422.1998919999998
 21
287.065078
 31
0.0
  0
LINE
  5
D3
330
6B
100
AcDbEntity
  8
0
 62
     2
100
AcDbLine
 10
425.177503
 20
290.56824
 30
0.0
 11
424.7417549999998
 21
290.340772
 31
0.0
  0
LINE
  5
D4
330
6B
100
AcDbEntity
  8
0
 62
     2
100
AcDbLine
 10
423.638238
 20
290.56824
 30
0.0
 11
424.073986
 21
290.340772
 31
0.0
  0
LINE
  5
D5
330
6B
100
AcDbEntity
  8
0
 62
     2
100
AcDbLine
 10
424.073986
 20
290.340772
 30
0.0
 11
424.073986
 21
288.898435
 31
0.0
  0
LINE
  5
D6
330
6B
100
AcDbEntity
  8
0
 62
     2
100
AcDbLine
 10
424.7417549999998
 20
290.340772
 30
0.0
 11
424.7417549999998
 21
286.626049
 31
0.0
  0
LINE
  5
D7
330
6B
100
AcDbEntity
  8
0
 62
     2
100
AcDbLine
 10
425.3928
 20
290.568238
 30
0.0
 11
425.828546
 21
290.3407669999999
 31
0.0
  0
LINE
  5
D8
330
6B
100
AcDbEntity
  8
0
 62
     2
100
AcDbLine
 10
425.3927219999998
 20
286.83766
 30
0.0
 11
425.828478
 21
287.065113
 31
0.0
  0
LINE
  5
D9
330
6B
100
AcDbEntity
  8
0
 62
     2
100
AcDbLine
 10
425.828546
 20
290.3407669999999
 30
0.0
 11
425.828546
 21
287.065113
 31
0.0
  0
LINE
  5
DA
330
6B
100
AcDbEntity
  8
0
 62
     2
100
AcDbLine
 10
427.322337
 20
290.568214
 30
0.0
 11
426.886585
 21
290.340752
 31
0.0
  0
LINE
  5
DB
330
6B
100
AcDbEntity
  8
0
 62
     2
100
AcDbLine
 10
426.886585
 20
290.340752
 30
0.0
 11
426.886585
 21
287.065098
 31
0.0
  0
LINE
  5
DC
330
6B
100
AcDbEntity
  8
0
 62
     2
100
AcDbLine
 10
427.322337
 20
286.837636
 30
0.0
 11
426.886585
 21
287.065098
 31
0.0
  0
LINE
  5
DD
330
6B
100
AcDbEntity
  8
0
 62
     2
100
AcDbLine
 10
431.01259
 20
290.568173
 30
0.0
 11
431.448337
 21
290.340703
 31
0.0
  0
LINE
  5
DE
330
6B
100
AcDbEntity
  8
0
 62
     2
100
AcDbLine
 10
431.448337
 20
290.340703
 30
0.0
 11
431.4482799999998
 21
287.06505
 31
0.0
  0
LINE
  5
DF
330
6B
100
AcDbEntity
  8
0
 62
     2
100
AcDbLine
 10
431.0125249999998
 20
286.837595
 30
0.0
 11
431.4482799999998
 21
287.06505
 31
0.0
  0
LINE
  5
E0
330
6B
100
AcDbEntity
  8
0
 62
     2
100
AcDbLine
 10
432.9648509999998
 20
290.568173
 30
0.0
 11
432.529104
 21
290.340703
 31
0.0
  0
LINE
  5
E1
330
6B
100
AcDbEntity
  8
0
 62
     2
100
AcDbLine
 10
432.964916
 20
286.837595
 30
0.0
 11
432.529161
 21
287.06505
 31
0.0
  0
LINE
  5
E2
330
6B
100
AcDbEntity
  8
0
 62
     2
100
AcDbLine
 10
433.168579
 20
290.568173
 30
0.0
 11
433.6043259999998
 21
290.340703
 31
0.0
  0
LINE
  5
E3
330
6B
100
AcDbEntity
  8
0
 62
     2
100
AcDbLine
 10
433.1685139999998
 20
286.837595
 30
0.0
 11
433.604269
 21
287.06505
 31
0.0
  0
LINE
  5
E4
330
6B
100
AcDbEntity
  8
0
 62
     2
100
AcDbLine
 10
435.12084
 20
290.568173
 30
0.0
 11
434.685093
 21
290.340703
 31
0.0
  0
LINE
  5
E5
330
6B
100
AcDbEntity
  8
0
 62
     2
100
AcDbLine
 10
434.685093
 20
290.340703
 30
0.0
 11
434.68515
 21
287.06505
 31
0.0
  0
LINE
  5
E6
330
6B
100
AcDbEntity
  8
0
 62
     2
100
AcDbLine
 10
435.120905
 20
286.837595
 30
0.0
 11
434.68515
 21
287.06505
 31
0.0
  0
LINE
  5
E7
330
6B
100
AcDbEntity
  8
0
 62
     2
100
AcDbLine
 10
433.604301
 20
288.91357
 30
0.0
 11
432.529129
 21
288.91357
 31
0.0
  0
LINE
  5
E8
330
6B
100
AcDbEntity
  8
0
 62
     2
100
AcDbLine
 10
433.604294
 20
288.49228
 30
0.0
 11
432.529136
 21
288.49228
 31
0.0
  0
LINE
  5
E9
330
6B
100
AcDbEntity
  8
0
 62
     2
100
AcDbLine
 10
433.6043259999998
 20
290.340703
 30
0.0
 11
433.604301
 21
288.91357
 31
0.0
  0
LINE
  5
EA
330
6B
100
AcDbEntity
  8
0
 62
     2
100
AcDbLine
 10
433.604294
 20
288.49228
 30
0.0
 11
433.604269
 21
287.06505
 31
0.0
  0
LINE
  5
EB
330
6B
100
AcDbEntity
  8
0
 62
     2
100
AcDbLine
 10
432.529104
 20
290.340703
 30
0.0
 11
432.529129
 21
288.91357
 31
0.0
  0
LINE
  5
EC
330
6B
100
AcDbEntity
  8
0
 62
     2
100
AcDbLine
 10
432.529136
 20
288.49228
 30
0.0
 11
432.529161
 21
287.06505
 31
0.0
  0
LINE
  5
ED
330
6B
100
AcDbEntity
  8
0
 62
     2
100
AcDbLine
 10
435.327799
 20
290.568173
 30
0.0
 11
435.763546
 21
290.340703
 31
0.0
  0
LINE
  5
EE
330
6B
100
AcDbEntity
  8
0
 62
     2
100
AcDbLine
 10
435.763546
 20
290.340703
 30
0.0
 11
435.7634889999998
 21
287.06505
 31
0.0
  0
LINE
  5
EF
330
6B
100
AcDbEntity
  8
0
 62
     2
100
AcDbLine
 10
435.3277339999998
 20
286.837595
 30
0.0
 11
435.7634889999998
 21
287.06505
 31
0.0
  0
LINE
  5
F0
330
6B
100
AcDbEntity
  8
0
 62
     2
100
AcDbLine
 10
437.2573089999998
 20
290.568173
 30
0.0
 11
436.8215619999999
 21
290.340703
 31
0.0
  0
LINE
  5
F1
330
6B
100
AcDbEntity
  8
0
 62
     2
100
AcDbLine
 10
436.8215619999999
 20
290.340703
 30
0.0
 11
436.821619
 21
287.06505
 31
0.0
  0
LINE
  5
F2
330
6B
100
AcDbEntity
  8
0
 62
     2
100
AcDbLine
 10
437.2573739999999
 20
286.837595
 30
0.0
 11
436.821619
 21
287.06505
 31
0.0
  0
LINE
  5
F3
330
6B
100
AcDbEntity
  8
0
 62
     2
100
AcDbLine
 10
437.471669
 20
290.568173
 30
0.0
 11
437.907416
 21
290.340703
 31
0.0
  0
LINE
  5
F4
330
6B
100
AcDbEntity
  8
0
 62
     2
100
AcDbLine
 10
437.907416
 20
290.340703
 30
0.0
 11
437.9073589999999
 21
287.06505
 31
0.0
  0
LINE
  5
F5
330
6B
100
AcDbEntity
  8
0
 62
     2
100
AcDbLine
 10
437.471604
 20
286.837595
 30
0.0
 11
437.9073589999999
 21
287.06505
 31
0.0
  0
ARC
  5
F6
330
6B
100
AcDbEntity
  8
0
 62
     2
100
AcDbCircle
 10
429.620679
 20
288.712315
 30
0.0
 40
2.086285999999998
100
AcDbArc
 50
97.701524
 51
270.0
  0
ARC
  5
F7
330
6B
100
AcDbEntity
  8
0
 62
     2
100
AcDbCircle
 10
442.50128
 20
288.691358
 30
0.0
 40
2.108943
100
AcDbArc
 50
0.31425
 51
69.00558199999998
  0
ARC
  5
F8
330
6B
100
AcDbEntity
  8
0
 62
     2
100
AcDbCircle
 10
442.9619549999999
 20
288.691358
 30
0.0
 40
2.108943
100
AcDbArc
 50
110.994418
 51
148.116611
  0
ARC
  5
F9
330
6B
100
AcDbEntity
  8
0
 62
     2
100
AcDbCircle
 10
442.50128
 20
288.714492
 30
0.0
 40
2.108943
100
AcDbArc
 50
290.994418
 51
359.68575
  0
ARC
  5
FA
330
6B
100
AcDbEntity
  8
0
 62
     2
100
AcDbCircle
 10
442.9619549999999
 20
288.714492
 30
0.0
 40
2.108943
100
AcDbArc
 50
211.883389
 51
249.005582
  0
ARC
  5
FB
330
6B
100
AcDbEntity
  8
0
 62
     2
100
AcDbCircle
 10
442.731617
 20
289.565731
 30
0.0
 40
1.214070999999999
100
AcDbArc
 50
64.365172
 51
115.634828
  0
ARC
  5
FC
330
6B
100
AcDbEntity
  8
0
 62
     2
100
AcDbCircle
 10
442.731617
 20
287.84012
 30
0.0
 40
1.214070999999999
100
AcDbArc
 50
244.365172
 51
295.634828
  0
ARC
  5
FD
330
6B
100
AcDbEntity
  8
0
 62
     2
100
AcDbCircle
 10
442.731617
 20
289.588792
 30
0.0
 40
0.5958560000000001
100
AcDbArc
 50
19.486606
 51
160.513394
  0
ARC
  5
FE
330
6B
100
AcDbEntity
  8
0
 62
     2
100
AcDbCircle
 10
442.731617
 20
287.817058
 30
0.0
 40
0.5958560000000001
100
AcDbArc
 50
199.4866059999999
 51
340.513394
  0
ARC
  5
FF
330
6B
100
AcDbEntity
  8
0
 62
     3
100
AcDbCircle
 10
437.989145
 20
266.4748649999999
 30
0.0
 40
26.04
100
AcDbArc
 50
69.50571500000001
 51
81.689988
  0
ARC
  5
100
330
6B
100
AcDbEntity
  8
0
 62
     3
100
AcDbCircle
 10
437.989145
 20
310.930985
 30
0.0
 40
26.04
100
AcDbArc
 50
278.310012
 51
290.494285
  0
ARC
  5
101
330
6B
100
AcDbEntity
  8
0
 62
     3
100
AcDbCircle
 10
446.297349
 20
288.702925
 30
0.0
 40
2.31
100
AcDbArc
 50
290.494285
 51
69.50571500000001
  0
ARC
  5
102
330
6B
100
AcDbEntity
  8
0
 62
     3
100
AcDbCircle
 10
418.997349
 20
288.702925
 30
0.0
 40
2.31
100
AcDbArc
 50
110.494285
 51
249.505715
  0
ARC
  5
103
330
6B
100
AcDbEntity
  8
0
 62
     3
100
AcDbCircle
 10
427.305553
 20
266.4748649999999
 30
0.0
 40
26.04
100
AcDbArc
 50
98.31001200000001
 51
110.494285
  0
ARC
  5
104
330
6B
100
AcDbEntity
  8
0
 62
     3
100
AcDbCircle
 10
427.305553
 20
310.930985
 30
0.0
 40
26.04
100
AcDbArc
 50
249.505715
 51
261.689988
  0
ARC
  5
105
330
6B
100
AcDbEntity
  8
0
 62
     3
100
AcDbCircle
 10
432.647349
 20
229.902925
 30
0.0
 40
63.0
100
AcDbArc
 50
81.689988
 51
98.31001200000001
  0
ARC
  5
106
330
6B
100
AcDbEntity
  8
0
 62
     3
100
AcDbCircle
 10
432.647349
 20
347.502925
 30
0.0
 40
63.0
100
AcDbArc
 50
261.689988
 51
278.310012
  0
ARC
  5
107
330
6B
100
AcDbEntity
  8
0
 62
     3
100
AcDbCircle
 10
432.647349
 20
229.902925
 30
0.0
 40
62.37
100
AcDbArc
 50
81.689988
 51
98.31001200000001
  0
ARC
  5
108
330
6B
100
AcDbEntity
  8
0
 62
     3
100
AcDbCircle
 10
432.647349
 20
347.502925
 30
0.0
 40
62.37
100
AcDbArc
 50
261.689988
 51
278.310012
  0
ARC
  5
109
330
6B
100
AcDbEntity
  8
0
 62
     3
100
AcDbCircle
 10
437.989145
 20
310.930985
 30
0.0
 40
25.41
100
AcDbArc
 50
278.310012
 51
290.494285
  0
ARC
  5
10A
330
6B
100
AcDbEntity
  8
0
 62
     3
100
AcDbCircle
 10
437.989145
 20
266.4748649999999
 30
0.0
 40
25.41
100
AcDbArc
 50
69.50571500000001
 51
81.689988
  0
ARC
  5
10B
330
6B
100
AcDbEntity
  8
0
 62
     3
100
AcDbCircle
 10
446.297349
 20
288.702925
 30
0.0
 40
1.679999999999999
100
AcDbArc
 50
290.494285
 51
69.50571500000001
  0
ARC
  5
10C
330
6B
100
AcDbEntity
  8
0
 62
     3
100
AcDbCircle
 10
418.997349
 20
288.702925
 30
0.0
 40
1.679999999999999
100
AcDbArc
 50
110.494285
 51
249.505715
  0
ARC
  5
10D
330
6B
100
AcDbEntity
  8
0
 62
     3
100
AcDbCircle
 10
427.305553
 20
266.4748649999999
 30
0.0
 40
25.41
100
AcDbArc
 50
98.31001200000001
 51
110.494285
  0
ARC
  5
10E
330
6B
100
AcDbEntity
  8
0
 62
     3
100
AcDbCircle
 10
427.305553
 20
310.930985
 30
0.0
 40
25.41
100
AcDbArc
 50
249.505715
 51
261.689988
  0
LINE
  5
10F
330
6B
100
AcDbEntity
  8
0
 62
     2
100
AcDbLine
 10
437.2573099999998
 20
286.626049
 30
0.0
 11
435.327798
 21
286.626049
 31
0.0
  0
LINE
  5
110
330
6B
100
AcDbEntity
  8
0
 62
     2
100
AcDbLine
 10
437.2573099999998
 20
286.83761
 30
0.0
 11
437.2573099999998
 21
286.626049
 31
0.0
  0
LINE
  5
111
330
6B
100
AcDbEntity
  8
0
 62
     2
100
AcDbLine
 10
435.120841
 20
290.779703
 30
0.0
 11
433.1685779999999
 21
290.779703
 31
0.0
  0
LINE
  5
112
330
6B
100
AcDbEntity
  8
0
 62
     2
100
AcDbLine
 10
435.120841
 20
290.779703
 30
0.0
 11
435.120841
 21
290.56824
 31
0.0
  0
LINE
  5
113
330
6B
100
AcDbEntity
  8
0
 62
     2
100
AcDbLine
 10
435.120841
 20
286.83761
 30
0.0
 11
435.120841
 21
286.62595
 31
0.0
  0
LINE
  5
114
330
6B
100
AcDbEntity
  8
0
 62
     2
100
AcDbLine
 10
435.120841
 20
286.62595
 30
0.0
 11
433.1685779999999
 21
286.62595
 31
0.0
  0
LINE
  5
115
330
6B
100
AcDbEntity
  8
0
 62
     2
100
AcDbLine
 10
437.2573099999998
 20
290.779802
 30
0.0
 11
437.2573099999998
 21
290.56824
 31
0.0
  0
LINE
  5
116
330
6B
100
AcDbEntity
  8
0
 62
     2
100
AcDbLine
 10
437.2573099999998
 20
290.779802
 30
0.0
 11
435.327798
 21
290.779802
 31
0.0
  0
LINE
  5
117
330
6B
100
AcDbEntity
  8
0
 62
     2
100
AcDbLine
 10
435.327798
 20
290.779802
 30
0.0
 11
435.327798
 21
290.56824
 31
0.0
  0
LINE
  5
118
330
6B
100
AcDbEntity
  8
0
 62
     2
100
AcDbLine
 10
437.4716679999998
 20
286.83761
 30
0.0
 11
437.4716679999998
 21
286.626049
 31
0.0
  0
LINE
  5
119
330
6B
100
AcDbEntity
  8
0
 62
     2
100
AcDbLine
 10
439.4559679999998
 20
286.626049
 30
0.0
 11
437.4716679999998
 21
286.626049
 31
0.0
  0
LINE
  5
11A
330
6B
100
AcDbEntity
  8
0
 62
     2
100
AcDbLine
 10
438.9654319999998
 20
290.112032
 30
0.0
 11
438.9654319999998
 21
287.2938180000001
 31
0.0
  0
LINE
  5
11B
330
6B
100
AcDbEntity
  8
0
 62
     2
100
AcDbLine
 10
438.9654319999998
 20
287.2938180000001
 30
0.0
 11
439.1554809999998
 21
287.2938180000001
 31
0.0
  0
ARC
  5
11C
330
6B
100
AcDbEntity
  8
0
 62
     2
100
AcDbCircle
 10
438.183695
 20
288.702925
 30
0.0
 40
1.711709999999999
100
AcDbArc
 50
304.591955
 51
55.408045
  0
LINE
  5
11D
330
6B
100
AcDbEntity
  8
0
 62
     2
100
AcDbLine
 10
439.4559679999998
 20
290.779802
 30
0.0
 11
437.4716679999998
 21
290.779802
 31
0.0
  0
LINE
  5
11E
330
6B
100
AcDbEntity
  8
0
 62
     2
100
AcDbLine
 10
437.4716679999998
 20
290.779802
 30
0.0
 11
437.4716679999998
 21
290.56824
 31
0.0
  0
LINE
  5
11F
330
6B
100
AcDbEntity
  8
0
 62
     2
100
AcDbLine
 10
435.327798
 20
286.83761
 30
0.0
 11
435.327798
 21
286.626049
 31
0.0
  0
LINE
  5
120
330
6B
100
AcDbEntity
  8
0
 62
     2
100
AcDbLine
 10
438.9654319999998
 20
290.112032
 30
0.0
 11
439.1554809999998
 21
290.112032
 31
0.0
  0
LINE
  5
121
330
6B
100
AcDbEntity
  8
0
 62
     2
100
AcDbLine
 10
427.3222719999998
 20
286.83761
 30
0.0
 11
427.322269
 21
286.626029
 31
0.0
  0
LINE
  5
122
330
6B
100
AcDbEntity
  8
0
 62
     2
100
AcDbLine
 10
425.392757
 20
286.626069
 30
0.0
 11
427.322269
 21
286.626035
 31
0.0
  0
LINE
  5
123
330
6B
100
AcDbEntity
  8
0
 62
     2
100
AcDbLine
 10
421.096375
 20
286.626049
 30
0.0
 11
422.63564
 21
286.626049
 31
0.0
  0
ARC
  5
124
330
6B
100
AcDbEntity
  8
0
 62
     2
100
AcDbCircle
 10
416.114432
 20
288.751832
 30
0.0
 40
14.713566
100
AcDbArc
 50
353.866006
 51
357.694034
  0
LINE
  5
125
330
6B
100
AcDbEntity
  8
0
 62
     2
100
AcDbLine
 10
429.831012
 20
288.1634640000001
 30
0.0
 11
430.816083
 21
288.159819
 31
0.0
  0
LINE
  5
168
330
6B
100
AcDbEntity
  8
0
 62
     2
100
AcDbLine
 10
429.83499
 20
289.238679
 30
0.0
 11
430.820061
 21
289.235034
 31
0.0
  0
ARC
  5
169
330
6B
100
AcDbEntity
  8
0
 62
     2
100
AcDbCircle
 10
416.114432
 20
288.751832
 30
0.0
 40
14.713566
100
AcDbArc
 50
1.881965999999999
 51
5.709994
  0
LINE
  5
16A
330
6B
100
AcDbEntity
  8
0
 62
     2
100
AcDbLine
 10
427.3223409999998
 20
290.779782
 30
0.0
 11
427.322337
 21
290.56824
 31
0.0
  0
LINE
  5
16B
330
6B
100
AcDbEntity
  8
0
 62
     2
100
AcDbLine
 10
425.392829
 20
290.779821
 30
0.0
 11
427.3223409999998
 21
290.779788
 31
0.0
  0
LINE
  5
16C
330
6B
100
AcDbEntity
  8
0
 62
     2
100
AcDbLine
 10
425.3927599999998
 20
286.83761
 30
0.0
 11
425.392757
 21
286.626069
 31
0.0
  0
LINE
  5
16D
330
6B
100
AcDbEntity
  8
0
 62
     2
100
AcDbLine
 10
425.392829
 20
290.779821
 30
0.0
 11
425.392825
 21
290.56824
 31
0.0
  0
LINE
  5
16E
330
6B
100
AcDbEntity
  8
0
 62
     2
100
AcDbLine
 10
422.63564
 20
286.83761
 30
0.0
 11
422.63564
 21
286.626049
 31
0.0
  0
LINE
  5
16F
330
6B
100
AcDbEntity
  8
0
 62
     2
100
AcDbLine
 10
422.1998919999998
 20
289.061937
 30
0.0
 11
423.7223219999998
 21
286.626049
 31
0.0
  0
LINE
  5
170
330
6B
100
AcDbEntity
  8
0
 62
     2
100
AcDbLine
 10
423.7223219999998
 20
286.626049
 30
0.0
 11
424.7417549999998
 21
286.626049
 31
0.0
  0
LINE
  5
171
330
6B
100
AcDbEntity
  8
0
 62
     2
100
AcDbLine
 10
425.177503
 20
290.779802
 30
0.0
 11
425.177503
 21
290.56824
 31
0.0
  0
LINE
  5
172
330
6B
100
AcDbEntity
  8
0
 62
     2
100
AcDbLine
 10
423.638238
 20
290.779802
 30
0.0
 11
425.177503
 21
290.779802
 31
0.0
  0
LINE
  5
173
330
6B
100
AcDbEntity
  8
0
 62
     2
100
AcDbLine
 10
423.638238
 20
290.779802
 30
0.0
 11
423.638238
 21
290.56824
 31
0.0
  0
LINE
  5
174
330
6B
100
AcDbEntity
  8
0
 62
     2
100
AcDbLine
 10
424.073986
 20
288.898435
 30
0.0
 11
422.8393389999998
 21
290.779802
 31
0.0
  0
LINE
  5
175
330
6B
100
AcDbEntity
  8
0
 62
     2
100
AcDbLine
 10
421.096375
 20
290.779802
 30
0.0
 11
422.8393389999998
 21
290.779802
 31
0.0
  0
LINE
  5
176
330
6B
100
AcDbEntity
  8
0
 62
     2
100
AcDbLine
 10
431.012589
 20
290.779703
 30
0.0
 11
432.9648519999998
 21
290.779703
 31
0.0
  0
LINE
  5
177
330
6B
100
AcDbEntity
  8
0
 62
     2
100
AcDbLine
 10
431.012589
 20
290.56824
 30
0.0
 11
431.012589
 21
290.779703
 31
0.0
  0
LINE
  5
178
330
6B
100
AcDbEntity
  8
0
 62
     2
100
AcDbLine
 10
431.012589
 20
286.62595
 30
0.0
 11
431.012589
 21
286.83761
 31
0.0
  0
LINE
  5
179
330
6B
100
AcDbEntity
  8
0
 62
     2
100
AcDbLine
 10
431.012589
 20
286.62595
 30
0.0
 11
432.9648519999998
 21
286.62595
 31
0.0
  0
LINE
  5
17A
330
6B
100
AcDbEntity
  8
0
 62
     2
100
AcDbLine
 10
433.1685779999999
 20
286.83761
 30
0.0
 11
433.1685779999999
 21
286.62595
 31
0.0
  0
LINE
  5
17B
330
6B
100
AcDbEntity
  8
0
 62
     2
100
AcDbLine
 10
432.9648519999998
 20
286.83761
 30
0.0
 11
432.9648519999998
 21
286.62595
 31
0.0
  0
LINE
  5
17C
330
6B
100
AcDbEntity
  8
0
 62
     2
100
AcDbLine
 10
432.9648519999998
 20
290.56824
 30
0.0
 11
432.9648519999998
 21
290.779703
 31
0.0
  0
LINE
  5
17D
330
6B
100
AcDbEntity
  8
0
 62
     2
100
AcDbLine
 10
433.1685779999999
 20
290.56824
 30
0.0
 11
433.1685779999999
 21
290.779703
 31
0.0
  0
LINE
  5
17E
330
6B
100
AcDbEntity
  8
0
 62
     2
100
AcDbLine
 10
421.096375
 20
286.83761
 30
0.0
 11
421.096375
 21
286.626049
 31
0.0
  0
LINE
  5
17F
330
6B
100
AcDbEntity
  8
0
 62
     2
100
AcDbLine
 10
421.096375
 20
290.779802
 30
0.0
 11
421.096375
 21
290.56824
 31
0.0
  0
ARC
  5
180
330
6B
100
AcDbEntity
  8
0
 62
     2
100
AcDbCircle
 10
439.6659679999998
 20
289.138673
 30
0.0
 40
1.641127999999999
100
AcDbArc
 50
17.308749
 51
23.765071
  0
ARC
  5
181
330
6B
100
AcDbEntity
  8
0
 62
     2
100
AcDbCircle
 10
438.267695
 20
288.702925
 30
0.0
 40
3.105725999999998
100
AcDbArc
 50
342.691251
 51
17.308566
  0
ARC
  5
182
330
6B
100
AcDbEntity
  8
0
 62
     2
100
AcDbCircle
 10
439.6659679999998
 20
288.267177
 30
0.0
 40
1.641127999999999
100
AcDbArc
 50
336.234929
 51
342.691251
  0
ARC
  5
183
330
6B
100
AcDbEntity
  8
0
 62
     2
100
AcDbCircle
 10
439.4559679999998
 20
289.138673
 30
0.0
 40
1.641127999999999
100
AcDbArc
 50
17.308749
 51
90.0
  0
ARC
  5
184
330
6B
100
AcDbEntity
  8
0
 62
     2
100
AcDbCircle
 10
438.057695
 20
288.702925
 30
0.0
 40
3.105725999999998
100
AcDbArc
 50
342.691251
 51
17.308566
  0
ARC
  5
185
330
6B
100
AcDbEntity
  8
0
 62
     2
100
AcDbCircle
 10
439.4559679999998
 20
288.267177
 30
0.0
 40
1.641127999999999
100
AcDbArc
 50
270.0
 51
342.691251
  0
ARC
  5
186
330
6B
100
AcDbEntity
  8
0
 62
     2
100
AcDbCircle
 10
429.332028
 20
288.702925
 30
0.0
 40
2.076875999999999
100
AcDbArc
 50
46.75287999999999
 51
89.749998
  0
ARC
  5
187
330
6B
100
AcDbEntity
  8
0
 62
     2
100
AcDbCircle
 10
429.332028
 20
288.702925
 30
0.0
 40
2.076875999999999
100
AcDbArc
 50
273.976333
 51
312.82312
  0
ARC
  5
188
330
6B
100
AcDbEntity
  8
0
 62
     2
100
AcDbCircle
 10
440.773836
 20
288.670864
 30
0.0
 40
2.755888999999998
100
AcDbArc
 50
0.6665840000000001
 51
23.903928
  0
ARC
  5
189
330
6B
100
AcDbEntity
  8
0
 62
     2
100
AcDbCircle
 10
444.689398
 20
288.670864
 30
0.0
 40
2.755888999999998
100
AcDbArc
 50
156.096072
 51
179.333416
  0
ARC
  5
18A
330
6B
100
AcDbEntity
  8
0
 62
     2
100
AcDbCircle
 10
440.773836
 20
288.734987
 30
0.0
 40
2.755888999999998
100
AcDbArc
 50
336.096072
 51
359.333416
  0
ARC
  5
18B
330
6B
100
AcDbEntity
  8
0
 62
     2
100
AcDbCircle
 10
444.689398
 20
288.734987
 30
0.0
 40
2.755888999999998
100
AcDbArc
 50
180.666584
 51
203.903928
  0
LINE
  5
18E
330
6B
100
AcDbEntity
  8
0
 62
     3
100
AcDbLine
 10
508.312659
 20
28.44651800000001
 30
0.0
 11
508.312659
 21
51.446518
 31
0.0
  0
LINE
  5
190
330
6B
100
AcDbEntity
  8
0
 62
     3
100
AcDbLine
 10
455.2590499999998
 20
21.446518
 30
0.0
 11
455.2590499999998
 21
35.446518
 31
0.0
  0
TEXT
  5
192
330
6B
100
AcDbEntity
  8
0
 62
     3
100
AcDbText
 10
484.3229769999998
 20
47.65163399999997
 30
0.0
 40
2.0
  1
A
 41
0.7
100
AcDbText
  0
TEXT
  5
193
330
6B
100
AcDbEntity
  8
0
 62
     3
100
AcDbText
 10
486.8582629999998
 20
47.65163399999997
 30
0.0
 40
2.0
  1
P
 41
0.7
100
AcDbText
  0
TEXT
  5
194
330
6B
100
AcDbEntity
  8
0
 62
     3
100
AcDbText
 10
489.3935500000002
 20
47.65163399999997
 30
0.0
 40
2.0
  1
P
 41
0.7
100
AcDbText
  0
TEXT
  5
195
330
6B
100
AcDbEntity
  8
0
 62
     3
100
AcDbText
 10
491.928836
 20
47.65163399999997
 30
0.0
 40
2.0
  1
D
 41
0.7
100
AcDbText
  0
TEXT
  5
196
330
6B
100
AcDbEntity
  8
0
 62
     3
100
AcDbText
 10
497.297519
 20
47.65163399999997
 30
0.0
 40
2.0
  1
C
 41
0.7
100
AcDbText
  0
TEXT
  5
197
330
6B
100
AcDbEntity
  8
0
 62
     3
100
AcDbText
 10
499.832805
 20
47.65163399999997
 30
0.0
 40
2.0
  1
H
 41
0.7
100
AcDbText
  0
TEXT
  5
198
330
6B
100
AcDbEntity
  8
0
 62
     3
100
AcDbText
 10
502.368091
 20
47.65163399999997
 30
0.0
 40
2.0
  1
C
 41
0.7
100
AcDbText
  0
TEXT
  5
199
330
6B
100
AcDbEntity
  8
0
 62
     3
100
AcDbText
 10
504.903378
 20
47.65163399999997
 30
0.0
 40
2.0
  1
K
 41
0.7
100
AcDbText
  0
TEXT
  5
19A
330
6B
100
AcDbEntity
  8
0
 62
     3
100
AcDbText
 10
510.577344
 20
47.65163399999997
 30
0.0
 40
2.0
  1
DESN
 41
1.216762999999998
100
AcDbText
  0
TEXT
  5
19B
330
6B
100
AcDbEntity
  8
0
 62
     3
100
AcDbText
 10
425.5709849999998
 20
18.30513599999999
 30
0.0
 40
2.0
  1
NICHIDO IND.CO.LTD
 41
1.274876
100
AcDbText
  0
LINE
  5
19C
330
6B
100
AcDbEntity
  8
0
 62
     3
100
AcDbLine
 10
435.9540149999999
 20
51.446518
 30
0.0
 11
435.9540149999999
 21
28.44651800000001
 31
0.0
  0
LINE
  5
19D
330
6B
100
AcDbEntity
  8
0
 62
     3
100
AcDbLine
 10
482.3126589999993
 20
51.44651799999999
 30
0.0
 11
482.312659
 21
11.780796
 31
0.0
  0
LINE
  5
1A2
330
6B
100
AcDbEntity
  8
0
 62
     3
100
AcDbLine
 10
495.312659
 20
51.44651799999999
 30
0.0
 11
495.312659
 21
21.446518
 31
0.0
  0
TEXT
  5
1A3
330
6B
100
AcDbEntity
  8
0
 62
     3
100
AcDbText
 10
483.4251039999998
 20
22.311205
 30
0.0
 40
3.2
  1
作成日
 41
1.017225999999997
100
AcDbText
  0
LINE
  5
1A4
330
6B
100
AcDbEntity
  8
0
 62
     3
100
AcDbLine
 10
534.012023
 20
51.446518
 30
0.0
 11
422.7085800000002
 21
51.446518
 31
0.0
  0
LINE
  5
1A5
330
6B
100
AcDbEntity
  8
0
 62
     3
100
AcDbLine
 10
521.3126589999998
 20
28.44651800000001
 30
0.0
 11
521.3126589999998
 21
51.446518
 31
0.0
  0
TEXT
  5
1A6
330
6B
100
AcDbEntity
  8
0
 62
     3
100
AcDbText
 10
524.636462
 20
47.73745299999998
 30
0.0
 40
1.8
  1
D
 41
0.666667
100
AcDbText
  0
TEXT
  5
1A7
330
6B
100
AcDbEntity
  8
0
 62
     3
100
AcDbText
 10
527.453091
 20
47.73745299999998
 30
0.0
 40
1.8
  1
E
 41
0.666667
100
AcDbText
  0
TEXT
  5
1A8
330
6B
100
AcDbEntity
  8
0
 62
     3
100
AcDbText
 10
530.2697189999999
 20
47.73745299999998
 30
0.0
 40
1.8
  1
F
 41
0.666667
100
AcDbText
  0
TEXT
  5
1A9
330
6B
100
AcDbEntity
  8
0
 62
     3
100
AcDbText
 10
524.636462
 20
43.74489899999999
 30
0.0
 40
3.2
  1
製図
 41
1.076369
100
AcDbText
  0
LINE
  5
1AA
330
6B
100
AcDbEntity
  8
0
 62
     3
100
AcDbLine
 10
422.7085800000002
 20
51.446518
 30
0.0
 11
422.7085800000002
 21
11.780796
 31
0.0
  0
TEXT
  5
1AB
330
6B
100
AcDbEntity
  8
0
 62
     3
100
AcDbText
 10
424.085233
 20
12.113261
 30
0.0
 40
5.0
  1
日動工業株式会社
 41
0.833333
100
AcDbText
  0
LINE
  5
1AC
330
6B
100
AcDbEntity
  8
0
 62
     3
100
AcDbLine
 10
465.5909840000001
 20
35.446518
 30
0.0
 11
465.5909840000001
 21
11.780796
 31
0.0
  0
LINE
  5
1AD
330
6B
100
AcDbEntity
  8
0
 62
     3
100
AcDbLine
 10
465.5909840000001
 20
16.613657
 30
0.0
 11
482.312659
 21
16.613657
 31
0.0
  0
TEXT
  5
1AE
330
6B
100
AcDbEntity
  8
0
 62
     3
100
AcDbText
 10
466.177586
 20
17.430087
 30
0.0
 40
3.2
  1
出図コード
 41
0.8356860000000001
100
AcDbText
  0
LINE
  5
1B0
330
6B
100
AcDbEntity
  8
0
 62
     3
100
AcDbLine
 10
422.7085800000002
 20
21.446518
 30
0.0
 11
534.012023
 21
21.446518
 31
0.0
  0
LINE
  5
1B2
330
6B
100
AcDbEntity
  8
0
 62
     3
100
AcDbLine
 10
422.7085800000002
 20
42.44651799999996
 30
0.0
 11
534.012023
 21
42.44651799999997
 31
0.0
  0
LINE
  5
1B8
330
6B
100
AcDbEntity
  8
0
 62
     3
100
AcDbLine
 10
422.7085800000002
 20
35.446518
 30
0.0
 11
482.312659
 21
35.446518
 31
0.0
  0
LINE
  5
1BE
330
6B
100
AcDbEntity
  8
0
 62
     3
100
AcDbLine
 10
422.7085800000002
 20
28.44651800000001
 30
0.0
 11
534.012023
 21
28.44651800000001
 31
0.0
  0
TEXT
  5
1BF
330
6B
100
AcDbEntity
  8
0
 62
     3
100
AcDbText
 10
466.0450380000001
 20
12.38299
 30
0.0
 40
3.2
  1
ZK-A4Y
 41
0.8112849999999999
100
AcDbText
  0
LINE
  5
1C0
330
6B
100
AcDbEntity
  8
0
 62
     3
100
AcDbLine
 10
354.012023
 20
288.780796
 30
0.0
 11
354.012023
 21
11.780796
 31
0.0
  0
LINE
  5
1C1
330
6B
100
AcDbEntity
  8
0
 62
     3
100
AcDbLine
 10
534.012023
 20
11.780796
 30
0.0
 11
534.012023
 21
288.780796
 31
0.0
  0
LINE
  5
1C2
330
6B
100
AcDbEntity
  8
0
 62
     3
100
AcDbLine
 10
534.012023
 20
11.780796
 30
0.0
 11
354.012023
 21
11.780796
 31
0.0
  0
TEXT
  5
1C7
330
6B
100
AcDbEntity
  8
0
 62
     3
100
AcDbText
 10
424.5259769999998
 20
47.616044
 30
0.0
 40
2.0
  1
CONPONENTS
 41
0.5331600000000001
100
AcDbText
  0
TEXT
  5
1C8
330
6B
100
AcDbEntity
  8
0
 62
     3
100
AcDbText
 10
424.17625
 20
28.683867
 30
0.0
 40
3.0
  1
材
 41
0.833333
100
AcDbText
  0
TEXT
  5
1C9
330
6B
100
AcDbEntity
  8
0
 62
     3
100
AcDbText
 10
431.7118930000001
 20
28.683867
 30
0.0
 40
3.0
  1
質
 41
0.833333
100
AcDbText
  0
TEXT
  5
1CA
330
6B
100
AcDbEntity
  8
0
 62
     3
100
AcDbText
 10
424.2643210000001
 20
39.308392
 30
0.0
 40
2.0
  1
MODEL
 41
1.031072999999999
100
AcDbText
  0
TEXT
  5
1CB
330
6B
100
AcDbEntity
  8
0
 62
     3
100
AcDbText
 10
424.17625
 20
32.366175
 30
0.0
 40
2.0
  1
MATERIAL
 41
0.659278
100
AcDbText
  0
TEXT
  5
1CC
330
6B
100
AcDbEntity
  8
0
 62
     3
100
AcDbText
 10
455.4835309999998
 20
28.683867
 30
0.0
 40
3.0
  1
備
 41
0.833333
100
AcDbText
  0
TEXT
  5
1CD
330
6B
100
AcDbEntity
  8
0
 62
     3
100
AcDbText
 10
462.216533
 20
28.683867
 30
0.0
 40
3.0
  1
考
 41
0.833333
100
AcDbText
  0
TEXT
  5
1CE
330
6B
100
AcDbEntity
  8
0
 62
     3
100
AcDbText
 10
455.8540255915771
 20
32.366175
 30
0.0
 40
2.0
  1
REMARKS
 41
0.675794
100
AcDbText
  0
TEXT
  5
1CF
330
6B
100
AcDbEntity
  8
0
 62
     3
100
AcDbText
 10
425.7659789999998
 20
25.446055
 30
0.0
 40
2.0
  1
3AD
 41
1.42614
100
AcDbText
  0
TEXT
  5
1D0
330
6B
100
AcDbEntity
  8
0
 62
     3
100
AcDbText
 10
435.0769590000001
 20
25.611788
 30
0.0
 40
2.0
  1
ANGLE
 41
1.669883999999995
100
AcDbText
  0
TEXT
  5
1D1
330
6B
100
AcDbEntity
  8
0
 62
     3
100
AcDbText
 10
456.0108460000001
 20
25.234947
 30
0.0
 40
2.0
  1
SCALE
 41
0.7719630000000001
100
AcDbText
  0
TEXT
  5
1D2
330
6B
100
AcDbEntity
  8
0
 62
     3
100
AcDbText
 10
425.4521089999998
 20
21.446518
 30
0.0
 40
3.0
  1
第
 41
0.833333
100
AcDbText
  0
TEXT
  5
1D3
330
6B
100
AcDbEntity
  8
0
 62
     3
100
AcDbText
 10
433.238959
 20
21.446518
 30
0.0
 40
3.0
  1
三
 41
0.833333
100
AcDbText
  0
TEXT
  5
1D4
330
6B
100
AcDbEntity
  8
0
 62
     3
100
AcDbText
 10
441.0258090000001
 20
21.446518
 30
0.0
 40
3.0
  1
角
 41
0.833333
100
AcDbText
  0
TEXT
  5
1D5
330
6B
100
AcDbEntity
  8
0
 62
     3
100
AcDbText
 10
448.812659
 20
21.446518
 30
0.0
 40
3.0
  1
法
 41
0.833333
100
AcDbText
  0
TEXT
  5
1D6
330
6B
100
AcDbEntity
  8
0
 62
     3
100
AcDbText
 10
455.8740509999998
 20
21.734947
 30
0.0
 40
3.0
  1
尺
 41
0.833333
100
AcDbText
  0
TEXT
  5
1D7
330
6B
100
AcDbEntity
  8
0
 62
     3
100
AcDbText
 10
462.6070529999998
 20
21.734947
 30
0.0
 40
3.0
  1
度
 41
0.833333
100
AcDbText
  0
TEXT
  5
1D8
330
6B
100
AcDbEntity
  8
0
 62
     3
100
AcDbText
 10
485.190323
 20
43.90424699999999
 30
0.0
 40
3.0
  1
承認
 41
1.089472999999999
100
AcDbText
  0
TEXT
  5
1D9
330
6B
100
AcDbEntity
  8
0
 62
     3
100
AcDbText
 10
498.4332039999999
 20
43.84651799999999
 30
0.0
 40
3.0
  1
検図
 41
0.931761
100
AcDbText
  0
TEXT
  5
1DA
330
6B
100
AcDbEntity
  8
0
 62
     3
100
AcDbText
 10
511.4336
 20
43.84651799999999
 30
0.0
 40
3.0
  1
設
 41
0.833333
100
AcDbText
  0
TEXT
  5
1DB
330
6B
100
AcDbEntity
  8
0
 62
     3
100
AcDbText
 10
515.9234679999998
 20
43.84651799999999
 30
0.0
 40
3.0
  1
計
 41
0.833333
100
AcDbText
  0
TEXT
  5
1DC
330
6B
100
AcDbEntity
  8
0
 62
     3
100
AcDbText
 10
424.4574489999997
 20
43.135274
 30
0.0
 40
3.0
  1
品
 41
0.833333
100
AcDbText
  0
TEXT
  5
1DD
330
6B
100
AcDbEntity
  8
0
 62
     3
100
AcDbText
 10
431.993091
 20
43.135274
 30
0.0
 40
3.0
  1
名
 41
0.833333
100
AcDbText
  0
TEXT
  5
1DE
330
6B
100
AcDbEntity
  8
0
 62
     3
100
AcDbText
 10
424.2643210000001
 20
35.676132
 30
0.0
 40
3.0
  1
型
 41
0.833333
100
AcDbText
  0
TEXT
  5
1DF
330
6B
100
AcDbEntity
  8
0
 62
     3
100
AcDbText
 10
431.812412
 20
35.676132
 30
0.0
 40
3.0
  1
式
 41
0.833333
100
AcDbText
  0
LINE
  5
1E0
330
6B
100
AcDbEntity
  8
0
 62
     3
100
AcDbLine
 10
449.3396849999998
 20
288.780796
 30
0.0
 11
534.012023
 21
288.780796
 31
0.0
  0
LINE
  5
1E1
330
6B
100
AcDbEntity
  8
0
 62
     3
100
AcDbLine
 10
415.926939
 20
288.780796
 30
0.0
 11
354.012023
 21
288.780796
 31
0.0
  0
LINE
  5
1E3
330
6B
100
AcDbEntity
  8
0
 62
     7
100
AcDbLine
 10
460.517456
 20
284.275407
 30
0.0
 11
460.517456
 21
269.4254069999999
 31
0.0
  0
LINE
  5
1E4
330
6B
100
AcDbEntity
  8
0
 62
     7
100
AcDbLine
 10
534.012023
 20
274.375407
 30
0.0
 11
450.412023
 21
274.375407
 31
0.0
  0
LINE
  5
1E5
330
6B
100
AcDbEntity
  8
0
 62
     7
100
AcDbLine
 10
522.4144980000001
 20
284.275407
 30
0.0
 11
522.4144980000001
 21
269.4254069999999
 31
0.0
  0
LINE
  5
1E6
330
6B
100
AcDbEntity
  8
0
 62
     7
100
AcDbLine
 10
478.122782
 20
284.275407
 30
0.0
 11
478.122782
 21
269.4254069999999
 31
0.0
  0
LINE
  5
1E8
330
6B
100
AcDbEntity
  8
0
 62
     7
100
AcDbLine
 10
450.412023
 20
279.325407
 30
0.0
 11
534.012023
 21
279.325407
 31
0.0
  0
TEXT
  5
1E9
330
6B
100
AcDbEntity
  8
0
 62
     3
100
AcDbText
 10
470.1021296839266
 20
22.33451500000001
 30
0.0
 40
3.2
  1
1/1
  7
高3.2
100
AcDbText
  0
TEXT
  5
1EA
330
6B
100
AcDbEntity
  8
0
 62
     3
100
AcDbText
 10
468.459344
 20
28.999568
 30
0.0
 40
3.2
  1
交換球
  7
高3.2
100
AcDbText
  0
LINE
  5
1FF
330
6B
100
AcDbEntity
  8
0
 62
     7
100
AcDbLine
 10
455.2297269999998
 20
278.586162
 30
0.0
 11
453.3297269999998
 21
275.295265
 31
0.0
  0
LINE
  5
200
330
6B
100
AcDbEntity
  8
0
 62
     7
100
AcDbLine
 10
455.2297269999998
 20
278.586162
 30
0.0
 11
457.1297269999998
 21
275.295265
 31
0.0
  0
LINE
  5
201
330
6B
100
AcDbEntity
  8
0
 62
     7
100
AcDbLine
 10
453.3297269999998
 20
275.295265
 30
0.0
 11
457.1297269999998
 21
275.295265
 31
0.0
  0
LINE
  5
202
330
6B
100
AcDbEntity
  8
0
 62
     7
100
AcDbLine
 10
455.2297269999998
 20
273.429952
 30
0.0
 11
453.3297269999998
 21
270.139055
 31
0.0
  0
LINE
  5
203
330
6B
100
AcDbEntity
  8
0
 62
     7
100
AcDbLine
 10
455.2297269999998
 20
273.429952
 30
0.0
 11
457.1297269999998
 21
270.139055
 31
0.0
  0
LINE
  5
204
330
6B
100
AcDbEntity
  8
0
 62
     7
100
AcDbLine
 10
453.3297269999998
 20
270.139055
 30
0.0
 11
457.1297269999998
 21
270.139055
 31
0.0
  0
TEXT
  5
237
330
6B
100
AcDbEntity
  8
0
 62
     3
100
AcDbText
 10
437.3786309999998
 20
43.33742199999998
 30
0.0
 40
4.5
  1
LEDフロスト電球
 41
0.8
  7
高4.5
100
AcDbText
  0
LINE
  5
30A
330
6B
100
AcDbEntity
  8
0
 62
     3
100
AcDbLine
 10
508.312659
 20
51.446518
 30
0.0
 11
508.312659
 21
57.44651799999999
 31
0.0
  0
LINE
  5
30B
330
6B
100
AcDbEntity
  8
0
 62
     3
100
AcDbLine
 10
482.312659
 20
51.446518
 30
0.0
 11
482.312659
 21
57.44651799999999
 31
0.0
  0
LINE
  5
30C
330
6B
100
AcDbEntity
  8
0
 62
     3
100
AcDbLine
 10
534.012023
 20
57.44651799999999
 30
0.0
 11
482.312659
 21
57.44651799999999
 31
0.0
  0
TEXT
  5
30D
330
6B
100
AcDbEntity
  8
0
 62
     3
100
AcDbText
 10
488.3082579999999
 20
52.242867
 30
0.0
 40
4.5
  1
コード
  7
高4.5
100
AcDbText
  0
TEXT
  5
341
330
6B
100
AcDbEntity
  8
0
 62
     3
100
AcDbText
 10
437.4690898427206
 20
36.060888
 30
0.0
 40
4.5
  1
LFC12W-65K
  7
高4.5
100
AcDbText
  0
TEXT
  5
342
330
6B
100
AcDbEntity
  8
0
 62
     3
100
AcDbText
 10
484.3665924173187
 20
12.87320070709222
 30
0.0
 40
6.299999999999998
  1
LFC12W-65K
 41
0.8
  7
高6.3
100
AcDbText
  0
TEXT
  5
343
330
6B
100
AcDbEntity
  8
0
 62
     3
100
AcDbText
 10
498.8962080000002
 20
22.220934
 30
0.0
 40
3.2
  1
2016.08.29
  7
高3.2
100
AcDbText
  0
TEXT
  5
344
330
6B
100
AcDbEntity
  8
0
 62
     3
100
AcDbText
 10
512.9141374872098
 20
52.09007243369808
 30
0.0
 40
4.5
  1
13110
  7
高4.5
100
AcDbText
  0
LINE
  5
1442
330
6B
100
AcDbEntity
  8
0
100
AcDbLine
 10
401.6359033957614
 20
109.7379210000003
 30
0.0
 11
401.6359033957614
 21
109.3882859999997
 31
0.0
  0
LINE
  5
1443
330
6B
100
AcDbEntity
  8
0
100
AcDbLine
 10
401.6359033957614
 20
105.737921
 30
0.0
 11
401.6359033957614
 21
105.3882859999997
 31
0.0
  0
LINE
  5
1444
330
6B
100
AcDbEntity
  8
0
100
AcDbLine
 10
401.6359033957614
 20
101.737921
 30
0.0
 11
401.6359033957614
 21
101.3882859999997
 31
0.0
  0
LINE
  5
1445
330
6B
100
AcDbEntity
  8
0
100
AcDbLine
 10
424.3025703957616
 20
111.8098800000003
 30
0.0
 11
424.3025703957616
 21
111.3886979999999
 31
0.0
  0
LINE
  5
1446
330
6B
100
AcDbEntity
  8
0
100
AcDbLine
 10
424.3025703957616
 20
107.73751
 30
0.0
 11
424.3025703957616
 21
107.3886979999999
 31
0.0
  0
LINE
  5
1447
330
6B
100
AcDbEntity
  8
0
100
AcDbLine
 10
424.3025703957616
 20
103.73751
 30
0.0
 11
424.3025703957616
 21
103.3886979999999
 31
0.0
  0
LINE
  5
1448
330
6B
100
AcDbEntity
  8
0
100
AcDbLine
 10
417.9692368957618
 20
94.18272100000001
 30
0.0
 11
420.9692368957616
 21
97.682721
 31
0.0
  0
LINE
  5
1449
330
6B
100
AcDbEntity
  8
0
100
AcDbLine
 10
407.9692368957616
 20
94.18272100000001
 30
0.0
 11
404.9692368957614
 21
97.682721
 31
0.0
  0
ARC
  5
144A
330
6B
100
AcDbEntity
  8
0
100
AcDbCircle
 10
401.3085883957613
 20
103.5631040000003
 30
0.0
 40
1.333333
100
AcDbArc
 50
95.40479299998748
 51
264.5952070000126
  0
ARC
  5
144B
330
6B
100
AcDbEntity
  8
0
100
AcDbCircle
 10
401.1359033957616
 20
101.737921
 30
0.0
 40
0.5
100
AcDbArc
 50
0.0
 51
84.59520700001254
  0
ARC
  5
144C
330
6B
100
AcDbEntity
  8
0
100
AcDbCircle
 10
401.1359033957616
 20
105.3882859999997
 30
0.0
 40
0.5
100
AcDbArc
 50
275.4047929999874
 51
0.0
  0
ARC
  5
144D
330
6B
100
AcDbEntity
  8
0
100
AcDbCircle
 10
424.6342903957616
 20
101.5631040000002
 30
0.0
 40
1.333333
100
AcDbArc
 50
270.0
 51
84.7334589999874
  0
ARC
  5
144E
330
6B
100
AcDbEntity
  8
0
100
AcDbCircle
 10
424.8025703957615
 20
103.3886979999999
 30
0.0
 40
0.5
100
AcDbArc
 50
180.0
 51
264.7334589999874
  0
ARC
  5
144F
330
6B
100
AcDbEntity
  8
0
100
AcDbCircle
 10
424.6342903957616
 20
105.5631040000002
 30
0.0
 40
1.333333
100
AcDbArc
 50
275.2665410000126
 51
84.7334589999874
  0
ARC
  5
1450
330
6B
100
AcDbEntity
  8
0
100
AcDbCircle
 10
424.8025703957615
 20
103.73751
 30
0.0
 40
0.5
100
AcDbArc
 50
95.26654100001259
 51
180.0
  0
ARC
  5
1451
330
6B
100
AcDbEntity
  8
0
100
AcDbCircle
 10
424.8025703957615
 20
107.3886979999999
 30
0.0
 40
0.5
100
AcDbArc
 50
180.0
 51
264.7334589999874
  0
ARC
  5
1452
330
6B
100
AcDbEntity
  8
0
100
AcDbCircle
 10
424.6342903957616
 20
109.5631040000002
 30
0.0
 40
1.333333
100
AcDbArc
 50
275.2665410000126
 51
84.7334589999874
  0
ARC
  5
1453
330
6B
100
AcDbEntity
  8
0
100
AcDbCircle
 10
424.8025703957615
 20
107.73751
 30
0.0
 40
0.5
100
AcDbArc
 50
95.26654100001259
 51
180.0
  0
ARC
  5
1454
330
6B
100
AcDbEntity
  8
0
100
AcDbCircle
 10
424.8025703957615
 20
111.3886979999999
 30
0.0
 40
0.5
100
AcDbArc
 50
180.0
 51
264.7334589999874
  0
ARC
  5
1455
330
6B
100
AcDbEntity
  8
0
100
AcDbCircle
 10
424.8025703957615
 20
111.8098800000003
 30
0.0
 40
0.5
100
AcDbArc
 50
93.18486299999795
 51
180.0
  0
ARC
  5
1456
330
6B
100
AcDbEntity
  8
0
100
AcDbCircle
 10
401.1359033957616
 20
109.7379210000003
 30
0.0
 40
0.5
100
AcDbArc
 50
0.0
 51
84.59520700001254
  0
ARC
  5
1457
330
6B
100
AcDbEntity
  8
0
100
AcDbCircle
 10
401.3085883957613
 20
107.5631040000003
 30
0.0
 40
1.333333
100
AcDbArc
 50
95.40479299998748
 51
264.5952070000126
  0
ARC
  5
1458
330
6B
100
AcDbEntity
  8
0
100
AcDbCircle
 10
401.1359033957616
 20
105.737921
 30
0.0
 40
0.5
100
AcDbArc
 50
0.0
 51
84.59520700001254
  0
ARC
  5
1459
330
6B
100
AcDbEntity
  8
0
100
AcDbCircle
 10
401.1359033957616
 20
109.3882859999997
 30
0.0
 40
0.5
100
AcDbArc
 50
275.4047929999874
 51
0.0
  0
LINE
  5
145A
330
6B
100
AcDbEntity
  8
0
100
AcDbLine
 10
424.7523383957617
 20
112.3083219999998
 30
0.0
 11
401.4266363957615
 21
110.2350069999999
 31
0.0
  0
LINE
  5
145B
330
6B
100
AcDbEntity
  8
0
100
AcDbLine
 10
424.5203853957616
 20
110.891563
 30
0.0
 11
401.1946823957615
 21
108.891563
 31
0.0
  0
LINE
  5
145C
330
6B
100
AcDbEntity
  8
0
100
AcDbLine
 10
424.7481953957617
 20
108.2346449999999
 30
0.0
 11
401.4224933957621
 21
106.234645
 31
0.0
  0
LINE
  5
145D
330
6B
100
AcDbEntity
  8
0
100
AcDbLine
 10
424.5203853957616
 20
106.891563
 30
0.0
 11
401.1946823957615
 21
104.891563
 31
0.0
  0
LINE
  5
145E
330
6B
100
AcDbEntity
  8
0
100
AcDbLine
 10
424.7481953957617
 20
104.2346449999999
 30
0.0
 11
401.4224933957621
 21
102.234645
 31
0.0
  0
LINE
  5
145F
330
6B
100
AcDbEntity
  8
0
100
AcDbLine
 10
424.5203853957616
 20
102.891563
 30
0.0
 11
401.1894715229516
 21
100.8911162076515
 31
0.0
  0
LINE
  5
1460
330
6B
100
AcDbEntity
  8
0
100
AcDbLine
 10
400.9692363957618
 20
117.6827209999999
 30
0.0
 11
400.9692363957617
 21
114.182721
 31
0.0
  0
LINE
  5
1461
330
6B
100
AcDbEntity
  8
0
100
AcDbLine
 10
424.9692363957617
 20
117.6827209999999
 30
0.0
 11
424.9692363957617
 21
114.182721
 31
0.0
  0
ARC
  5
1462
330
6B
100
AcDbEntity
  8
0
100
AcDbCircle
 10
401.3085883957613
 20
111.5993900000003
 30
0.0
 40
1.333333
100
AcDbArc
 50
95.40479299998748
 51
264.5952070000126
  0
LINE
  5
1463
330
6B
100
AcDbEntity
  8
0
100
AcDbLine
 10
415.8300681832694
 20
114.182721
 30
0.0
 11
401.1946823957615
 21
112.927849
 31
0.0
  0
LINE
  5
1464
330
6B
100
AcDbEntity
  8
0
100
AcDbLine
 10
424.9692363957617
 20
114.182721
 30
0.0
 11
400.9692363957617
 21
114.182721
 31
0.0
  0
ARC
  5
1465
330
6B
100
AcDbEntity
  8
0
100
AcDbCircle
 10
424.5760334665193
 20
113.2591171745071
 30
0.0
 40
1.003818992662016
100
AcDbArc
 50
280.3671454662602
 51
66.93924410986352
  0
ARC
  5
1466
330
6B
100
AcDbEntity
  8
0
100
AcDbCircle
 10
400.5544242887753
 20
113.4605098518338
 30
0.0
 40
0.8328613489872696
100
AcDbArc
 50
320.2413360786364
 51
60.12849002510869
  0
LINE
  5
1467
330
6B
100
AcDbEntity
  8
0
100
AcDbLine
 10
422.4221868957617
 20
97.682721
 30
0.0
 11
403.5162868957613
 21
97.682721
 31
0.0
  0
LINE
  5
1468
330
6B
100
AcDbEntity
  8
0
100
AcDbLine
 10
417.9692368957618
 20
94.18272100000001
 30
0.0
 11
407.9692368957616
 21
94.18272100000001
 31
0.0
  0
LINE
  5
1469
330
6B
100
AcDbEntity
  8
0
100
AcDbLine
 10
424.6342903957616
 20
100.229771
 30
0.0
 11
401.2177722410378
 21
100.229771
 31
0.0
  0
ARC
  5
146A
330
6B
100
AcDbEntity
  8
0
100
AcDbCircle
 10
401.1359033957616
 20
101.3882859999997
 30
0.0
 40
0.5
100
AcDbArc
 50
275.4047929999874
 51
0.0
  0
ARC
  5
146B
330
6B
100
AcDbEntity
  8
0
100
AcDbCircle
 10
401.2177722410378
 20
100.5610491352751
 30
0.0
 40
0.3312781352750566
100
AcDbArc
 50
94.90068724745823
 51
270.0
  0
ARC
  5
146C
330
6B
100
AcDbEntity
  8
0
100
AcDbCircle
 10
403.5162868957613
 20
99.72977100000001
 30
0.0
 40
2.047050000000238
100
AcDbArc
 50
180.0
 51
270.0
  0
ARC
  5
146D
330
6B
100
AcDbEntity
  8
0
100
AcDbCircle
 10
422.4221868957617
 20
99.72977100000001
 30
0.0
 40
2.047050000000238
100
AcDbArc
 50
270.0
 51
0.0
  0
ARC
  5
146E
330
6B
100
AcDbEntity
  8
0
100
AcDbCircle
 10
412.9692368957616
 20
106.1827210000062
 30
0.0
 40
13.00000000000628
100
AcDbArc
 50
247.3801350519754
 51
292.6198649480247
  0
LINE
  5
1473
330
6B
100
AcDbEntity
  8
0
  6
CENTER
100
AcDbLine
 10
412.9692368957616
 20
90.09817157908479
 30
0.0
 11
412.9692368957616
 21
228.0159902533772
 31
0.0
  0
LINE
  5
1487
330
6B
100
AcDbEntity
  8
0
  6
Continuous
100
AcDbLine
 10
424.4692368957618
 20
99.72977100000001
 30
0.0
 11
424.4692368957618
 21
100.229771
 31
0.0
  0
LINE
  5
1488
330
6B
100
AcDbEntity
  8
0
  6
Continuous
100
AcDbLine
 10
401.4692368957613
 20
99.72977100000001
 30
0.0
 11
401.4692368957613
 21
100.229771
 31
0.0
  0
LINE
  5
151A
330
6B
100
AcDbEntity
  8
0
  6
Continuous
 62
     3
100
AcDbLine
 10
399.3692368957617
 20
117.6827209999999
 30
0.0
 11
426.5692368957616
 21
117.6827209999999
 31
0.0
  0
LINE
  5
151B
330
6B
100
AcDbEntity
  8
0
 62
     3
100
AcDbLine
 10
426.5692368957616
 20
117.6827209999999
 30
0.0
 11
426.5692368957616
 21
118.6827209999999
 31
0.0
  0
LINE
  5
151C
330
6B
100
AcDbEntity
  8
0
 62
     3
100
AcDbLine
 10
399.3692368957617
 20
117.6827209999999
 30
0.0
 11
399.3692368957617
 21
118.6827209999999
 31
0.0
  0
LINE
  5
151D
330
6B
100
AcDbEntity
  8
0
  6
Continuous
 62
     3
100
AcDbLine
 10
398.4692368957617
 20
118.6827209999999
 30
0.0
 11
427.4692368957617
 21
118.6827209999999
 31
0.0
  0
LINE
  5
151E
330
6B
100
AcDbEntity
  8
0
  6
Continuous
 62
     3
100
AcDbLine
 10
387.9692368957617
 20
162.1827209999999
 30
0.0
 11
437.9692368957616
 21
162.1827209999999
 31
0.0
  0
ARC
  5
1525
330
6B
100
AcDbEntity
  8
0
  6
Continuous
 62
     3
100
AcDbCircle
 10
342.6120940386188
 20
162.1827209999999
 30
0.0
 40
95.3571428571429
100
AcDbArc
 50
332.8591312296773
 51
359.9999999999998
  0
ARC
  5
1526
330
6B
100
AcDbEntity
  8
0
  6
Continuous
 62
     3
100
AcDbCircle
 10
483.3263797529046
 20
162.1827209999999
 30
0.0
 40
95.3571428571429
100
AcDbArc
 50
180.0000000000002
 51
207.1408687703245
  0
LINE
  5
1527
330
6B
100
AcDbEntity
  8
0
 62
     3
100
AcDbLine
 10
436.9692368957617
 20
162.1827209999999
 30
0.0
 11
436.9692368957617
 21
163.1827209999999
 31
0.0
  0
LINE
  5
1528
330
6B
100
AcDbEntity
  8
0
 62
     3
100
AcDbLine
 10
388.9692368957617
 20
162.1827209999999
 30
0.0
 11
388.9692368957617
 21
163.1827209999999
 31
0.0
  0
LINE
  5
152A
330
6B
100
AcDbEntity
  8
0
  6
Continuous
 62
     3
100
AcDbLine
 10
388.9692368957617
 20
163.1827209999999
 30
0.0
 11
436.9692368957617
 21
163.1827209999999
 31
0.0
  0
LINE
  5
1531
330
6B
100
AcDbEntity
  8
0
  6
Continuous
 62
     3
100
AcDbLine
 10
436.9692368957617
 20
163.1827209999999
 30
0.0
 11
436.2192368957616
 21
165.1827209999999
 31
0.0
  0
LINE
  5
1532
330
6B
100
AcDbEntity
  8
0
  6
Continuous
 62
     3
100
AcDbLine
 10
436.2192368957616
 20
165.1827209999999
 30
0.0
 11
389.7192368957617
 21
165.1827209999999
 31
0.0
  0
LINE
  5
1533
330
6B
100
AcDbEntity
  8
0
  6
Continuous
 62
     3
100
AcDbLine
 10
389.7192368957617
 20
165.1827209999999
 30
0.0
 11
388.9692368957617
 21
163.1827209999999
 31
0.0
  0
LINE
  5
1537
330
6B
100
AcDbEntity
  8
0
  6
Continuous
 62
     3
100
AcDbLine
 10
436.2192368957616
 20
165.1827209999999
 30
0.0
 11
434.7375179349559
 21
222.4758541511604
 31
0.0
  0
LINE
  5
1538
330
6B
100
AcDbEntity
  8
0
  6
Continuous
 62
     3
100
AcDbLine
 10
389.7192368957617
 20
165.1827209999999
 30
0.0
 11
391.2009558565676
 21
222.4758541511604
 31
0.0
  0
ARC
  5
1539
330
6B
100
AcDbEntity
  8
0
  6
Continuous
 62
     3
100
AcDbCircle
 10
412.9692368957615
 20
157.3523638571429
 30
0.0
 40
69.33035714285698
100
AcDbArc
 50
72.3053446596639
 51
107.6946553403361
  0
ARC
  5
153A
330
6B
100
AcDbEntity
  8
0
  6
Continuous
 62
     3
100
AcDbCircle
 10
433.7378521905963
 20
222.4500007267373
 30
0.0
 40
1.0
100
AcDbArc
 50
1.48145717088768
 51
72.30534465966558
  0
ARC
  5
153B
330
6B
100
AcDbEntity
  8
0
  6
Continuous
 62
     3
100
AcDbCircle
 10
392.200621600927
 20
222.4500007267373
 30
0.0
 40
1.0
100
AcDbArc
 50
107.6946553403344
 51
178.5185428291136
  0
LINE
  5
153C
330
6B
100
AcDbEntity
  8
0
  6
Continuous
 62
     7
100
AcDbLine
 10
433.7378521905963
 20
223.1827209999999
 30
0.0
 11
392.200621600927
 21
223.1827209999999
 31
0.0
  0
LINE
  5
16A5
330
6B
100
AcDbEntity
  8
0
 62
     7
100
AcDbLine
 10
453.3440955525763
 20
114.3013038956365
 30
0.0
 11
522.0770347147159
 21
114.3013038956365
 31
0.0
  0
LINE
  5
16A6
330
6B
100
AcDbEntity
  8
0
 62
     7
100
AcDbLine
 10
453.3440955525763
 20
119.8013038956366
 30
0.0
 11
522.0770347147159
 21
119.8013038956366
 31
0.0
  0
LINE
  5
16A8
330
6B
100
AcDbEntity
  8
0
 62
     7
100
AcDbLine
 10
453.3440955525763
 20
125.3013038956366
 30
0.0
 11
522.0770347147159
 21
125.3013038956366
 31
0.0
  0
LINE
  5
16A9
330
6B
100
AcDbEntity
  8
0
 62
     7
100
AcDbLine
 10
463.7350860222452
 20
130.8013038956366
 30
0.0
 11
522.0770347147159
 21
130.8013038956366
 31
0.0
  0
LINE
  5
16AA
330
6B
100
AcDbEntity
  8
0
 62
     7
100
AcDbLine
 10
463.7350860222452
 20
136.3013038956367
 30
0.0
 11
522.0770347147159
 21
136.3013038956367
 31
0.0
  0
LINE
  5
16AB
330
6B
100
AcDbEntity
  8
0
 62
     7
100
AcDbLine
 10
463.7350860222452
 20
141.8013038956366
 30
0.0
 11
522.0770347147159
 21
141.8013038956366
 31
0.0
  0
LINE
  5
16AC
330
6B
100
AcDbEntity
  8
0
 62
     7
100
AcDbLine
 10
463.7350860222452
 20
147.3013038956367
 30
0.0
 11
522.0770347147159
 21
147.3013038956367
 31
0.0
  0
LINE
  5
16AD
330
6B
100
AcDbEntity
  8
0
 62
     7
100
AcDbLine
 10
453.3440955525763
 20
152.8013038956367
 30
0.0
 11
522.0770347147159
 21
152.8013038956367
 31
0.0
  0
LINE
  5
16AE
330
6B
100
AcDbEntity
  8
0
 62
     7
100
AcDbLine
 10
453.3440955525763
 20
158.3013038956366
 30
0.0
 11
522.0770347147159
 21
158.3013038956366
 31
0.0
  0
LINE
  5
16AF
330
6B
100
AcDbEntity
  8
0
 62
     7
100
AcDbLine
 10
453.3440955525763
 20
163.8013038956367
 30
0.0
 11
522.0770347147159
 21
163.8013038956367
 31
0.0
  0
LINE
  5
16B0
330
6B
100
AcDbEntity
  8
0
 62
     7
100
AcDbLine
 10
453.3440955525763
 20
169.3013038956367
 30
0.0
 11
522.0770347147159
 21
169.3013038956367
 31
0.0
  0
LINE
  5
16B1
330
6B
100
AcDbEntity
  8
0
 62
     7
100
AcDbLine
 10
453.3440955525763
 20
174.8013038956366
 30
0.0
 11
522.0770347147159
 21
174.8013038956366
 31
0.0
  0
LINE
  5
16B2
330
6B
100
AcDbEntity
  8
0
 62
     7
100
AcDbLine
 10
453.3440955525763
 20
180.3013038956366
 30
0.0
 11
522.0770347147159
 21
180.3013038956366
 31
0.0
  0
LINE
  5
16B3
330
6B
100
AcDbEntity
  8
0
 62
     7
100
AcDbLine
 10
453.3440955525763
 20
185.8013038956366
 30
0.0
 11
522.0770347147159
 21
185.8013038956366
 31
0.0
  0
LINE
  5
16B4
330
6B
100
AcDbEntity
  8
0
 62
     7
100
AcDbLine
 10
453.3440955525763
 20
191.3013038956366
 30
0.0
 11
522.0770347147159
 21
191.3013038956366
 31
0.0
  0
TEXT
  5
16B7
330
6B
100
AcDbEntity
  8
0
 62
     3
100
AcDbText
 10
454.8440955525762
 20
120.8013038956365
 30
0.0
 40
3.2
  1
球　寿　命
 41
0.8
  7
高3.2
100
AcDbText
  0
TEXT
  5
16B8
330
6B
100
AcDbEntity
  8
0
 62
     3
100
AcDbText
 10
454.8440955525762
 20
115.3013038956365
 30
0.0
 40
3.2
  1
使用環境温度
 41
0.8
  7
高3.2
100
AcDbText
  0
TEXT
  5
16BA
330
6B
100
AcDbEntity
  8
0
 62
     3
100
AcDbText
 10
454.8440955525762
 20
153.8013038956366
 30
0.0
 40
3.2
  1
固有エネルギー消費効率
 41
0.4
  7
高3.2
100
AcDbText
  0
TEXT
  5
16BB
330
6B
100
AcDbEntity
  8
0
 62
     3
100
AcDbText
 10
454.8440955525762
 20
159.3013038956367
 30
0.0
 40
3.2
  1
定格消費電力
 41
0.8
  7
高3.2
100
AcDbText
  0
TEXT
  5
16BC
330
6B
100
AcDbEntity
  8
0
 62
     3
100
AcDbText
 10
454.8440955525762
 20
164.8013038956366
 30
0.0
 40
3.2
  1
定格　電流
 41
0.8
  7
高3.2
100
AcDbText
  0
TEXT
  5
16BD
330
6B
100
AcDbEntity
  8
0
 62
     3
100
AcDbText
 10
454.8440955525762
 20
170.3013038956367
 30
0.0
 40
3.2
  1
入力電圧範囲
 41
0.8
  7
高3.2
100
AcDbText
  0
TEXT
  5
16BF
330
6B
100
AcDbEntity
  8
0
 62
     3
100
AcDbText
 10
454.8440955525761
 20
175.8013038956366
 30
0.0
 40
3.2
  1
定格　電圧
 41
0.8
  7
高3.2
100
AcDbText
  0
TEXT
  5
16C0
330
6B
100
AcDbEntity
  8
0
 62
     3
100
AcDbText
 10
454.8440955525761
 20
181.3013038956366
 30
0.0
 40
3.2
  1
照射　角度
 41
0.8
  7
高3.2
100
AcDbText
  0
TEXT
  5
16C1
330
6B
100
AcDbEntity
  8
0
 62
     3
100
AcDbText
 10
454.8440955525761
 20
192.3013038956366
 30
0.0
 40
3.2
  1
色　温　度
 41
0.8
  7
高3.2
100
AcDbText
  0
TEXT
  5
16C2
330
6B
100
AcDbEntity
  8
0
 62
     3
100
AcDbText
 10
454.8440955525761
 20
197.8013038956366
 30
0.0
 40
3.2
  1
定格　光束
 41
0.8
  7
高3.2
100
AcDbText
  0
TEXT
  5
16C3
330
6B
100
AcDbEntity
  8
0
 62
     3
100
AcDbText
 10
454.8440955525761
 20
203.3013038956366
 30
0.0
 40
3.2
  1
光　　　源
 41
0.8
  7
高3.2
100
AcDbText
  0
TEXT
  5
16C4
330
6B
100
AcDbEntity
  8
0
 62
     3
100
AcDbText
 10
454.8440955525761
 20
219.8013038956367
 30
0.0
 40
3.2
  1
本　体　色
 41
0.8
  7
高3.2
100
AcDbText
  0
TEXT
  5
16C5
330
6B
100
AcDbEntity
  8
0
 62
     3
100
AcDbText
 10
454.8440955525761
 20
186.8013038956366
 30
0.0
 40
3.2
  1
平均演色評価数
 41
0.6
  7
高3.2
100
AcDbText
  0
TEXT
  5
16C6
330
6B
100
AcDbEntity
  8
0
 62
     3
100
AcDbText
 10
454.8440955525762
 20
148.3013038956366
 30
0.0
 40
3.2
  1
照度
 41
0.8
  7
高3.2
100
AcDbText
  0
LINE
  5
16C7
330
6B
100
AcDbEntity
  8
0
 62
     7
100
AcDbLine
 10
453.3440955525763
 20
196.8013038956366
 30
0.0
 11
522.0770347147159
 21
196.8013038956366
 31
0.0
  0
LINE
  5
16C8
330
6B
100
AcDbEntity
  8
0
 62
     7
100
AcDbLine
 10
453.3440955525763
 20
202.3013038956368
 30
0.0
 11
522.0770347147159
 21
202.3013038956368
 31
0.0
  0
LINE
  5
16C9
330
6B
100
AcDbEntity
  8
0
 62
     7
100
AcDbLine
 10
453.3440955525763
 20
207.8013038956366
 30
0.0
 11
522.0770347147159
 21
207.8013038956366
 31
0.0
  0
LINE
  5
16CA
330
6B
100
AcDbEntity
  8
0
 62
     7
100
AcDbLine
 10
453.3440955525763
 20
218.8013038956369
 30
0.0
 11
522.0770347147159
 21
218.8013038956369
 31
0.0
  0
LINE
  5
16CD
330
6B
100
AcDbEntity
  8
0
 62
     7
100
AcDbLine
 10
453.3440955525763
 20
224.3013038956366
 30
0.0
 11
522.0770347147158
 21
224.3013038956366
 31
0.0
  0
LINE
  5
16CE
330
6B
100
AcDbEntity
  8
0
100
AcDbLine
 10
463.7350860222452
 20
152.8013038956367
 30
0.0
 11
463.7350860222452
 21
125.3013038956366
 31
0.0
  0
TEXT
  5
16CF
330
6B
100
AcDbEntity
  8
0
 62
     3
100
AcDbText
 10
465.2350860222443
 20
148.3013038956366
 30
0.0
 40
3.2
  1
1m
 41
0.8
  7
高3.2
100
AcDbText
  0
TEXT
  5
16D0
330
6B
100
AcDbEntity
  8
0
 62
     3
100
AcDbText
 10
465.2350860222443
 20
142.8013038956367
 30
0.0
 40
3.2
  1
2m
 41
0.8
  7
高3.2
100
AcDbText
  0
TEXT
  5
16D1
330
6B
100
AcDbEntity
  8
0
 62
     3
100
AcDbText
 10
465.2350860222443
 20
137.3013038956366
 30
0.0
 40
3.2
  1
3m
 41
0.8
  7
高3.2
100
AcDbText
  0
TEXT
  5
16D2
330
6B
100
AcDbEntity
  8
0
 62
     3
100
AcDbText
 10
465.2350860222443
 20
131.8013038956367
 30
0.0
 40
3.2
  1
4m
 41
0.8
  7
高3.2
100
AcDbText
  0
TEXT
  5
16D3
330
6B
100
AcDbEntity
  8
0
 62
     3
100
AcDbText
 10
465.2350860222443
 20
126.3013038956367
 30
0.0
 40
3.2
  1
5m
 41
0.8
  7
高3.2
100
AcDbText
  0
LINE
  5
16D4
330
6B
100
AcDbEntity
  8
0
 62
     3
100
AcDbLine
 10
453.3440955525763
 20
108.8013038956368
 30
0.0
 11
522.0770347147159
 21
108.8013038956368
 31
0.0
  0
TEXT
  5
16D6
330
6B
100
AcDbEntity
  8
0
 62
     3
100
AcDbText
 10
476.292653220844
 20
219.8013038956367
 30
0.0
 40
3.2
  1
白
  7
高3.2
100
AcDbText
  0
TEXT
  5
16D7
330
6B
100
AcDbEntity
  8
0
 62
     3
100
AcDbText
 10
476.292653220844
 20
203.3013038956366
 30
0.0
 40
3.2
  1
LED 12W
  7
高3.2
100
AcDbText
  0
TEXT
  5
16D8
330
6B
100
AcDbEntity
  8
0
 62
     3
100
AcDbText
 10
476.292653220844
 20
197.8013038956366
 30
0.0
 40
3.2
  1
1200Lm
  7
高3.2
100
AcDbText
  0
TEXT
  5
16D9
330
6B
100
AcDbEntity
  8
0
 62
     3
100
AcDbText
 10
476.292653220844
 20
192.3013038956366
 30
0.0
 40
3.2
  1
6500K
  7
高3.2
100
AcDbText
  0
TEXT
  5
16DA
330
6B
100
AcDbEntity
  8
0
 62
     3
100
AcDbText
 10
476.292653220844
 20
186.8013038956366
 30
0.0
 40
3.2
  1
Ra83
  7
高3.2
100
AcDbText
  0
TEXT
  5
16DB
330
6B
100
AcDbEntity
  8
0
 62
     3
100
AcDbText
 10
476.292653220844
 20
181.3013038956366
 30
0.0
 40
3.2
  1
300\U+00B0
  7
高3.2
100
AcDbText
  0
TEXT
  5
16DC
330
6B
100
AcDbEntity
  8
0
 62
     3
100
AcDbText
 10
476.292653220844
 20
175.8013038956366
 30
0.0
 40
3.2
  1
AC100V(50/60Hz)
  7
高3.2
100
AcDbText
  0
TEXT
  5
16DE
330
6B
100
AcDbEntity
  8
0
 62
     3
100
AcDbText
 10
476.2926532208441
 20
170.3013038956367
 30
0.0
 40
3.2
  1
AC90～110V
  7
高3.2
100
AcDbText
  0
TEXT
  5
16DF
330
6B
100
AcDbEntity
  8
0
 62
     3
100
AcDbText
 10
476.2926532208441
 20
164.8013038956366
 30
0.0
 40
3.2
  1
0.2A
  7
高3.2
100
AcDbText
  0
TEXT
  5
16E0
330
6B
100
AcDbEntity
  8
0
 62
     3
100
AcDbText
 10
476.2926532208441
 20
159.3013038956367
 30
0.0
 40
3.2
  1
13.2W
  7
高3.2
100
AcDbText
  0
TEXT
  5
16E1
330
6B
100
AcDbEntity
  8
0
 62
     3
100
AcDbText
 10
476.2926532208441
 20
153.8013038956366
 30
0.0
 40
3.2
  1
90.9Lm/W
  7
高3.2
100
AcDbText
  0
TEXT
  5
16E2
330
6B
100
AcDbEntity
  8
0
 62
     3
100
AcDbText
 10
476.2926532208441
 20
148.3013038956366
 30
0.0
 40
3.2
  1
上:80／横140Lx
  7
高3.2
100
AcDbText
  0
TEXT
  5
16E3
330
6B
100
AcDbEntity
  8
0
 62
     3
100
AcDbText
 10
476.2926532208441
 20
142.8013038956367
 30
0.0
 40
3.2
  1
上:25／横40Lx
  7
高3.2
100
AcDbText
  0
TEXT
  5
16E4
330
6B
100
AcDbEntity
  8
0
 62
     3
100
AcDbText
 10
476.2926532208441
 20
137.3013038956366
 30
0.0
 40
3.2
  1
上:10／横20Lx
  7
高3.2
100
AcDbText
  0
TEXT
  5
16E5
330
6B
100
AcDbEntity
  8
0
 62
     3
100
AcDbText
 10
476.2926532208441
 20
131.8013038956367
 30
0.0
 40
3.2
  1
上:7／横10Lx
  7
高3.2
100
AcDbText
  0
TEXT
  5
16E6
330
6B
100
AcDbEntity
  8
0
 62
     3
100
AcDbText
 10
476.2926532208441
 20
126.3013038956367
 30
0.0
 40
3.2
  1
上:5／横7Lx
  7
高3.2
100
AcDbText
  0
TEXT
  5
16E8
330
6B
100
AcDbEntity
  8
0
 62
     3
100
AcDbText
 10
476.2926532208441
 20
120.8013038956365
 30
0.0
 40
3.2
  1
25000H
  7
高3.2
100
AcDbText
  0
TEXT
  5
16E9
330
6B
100
AcDbEntity
  8
0
 62
     3
100
AcDbText
 10
476.2926532208441
 20
115.3013038956365
 30
0.0
 40
3.2
  1
-20～40℃
  7
高3.2
100
AcDbText
  0
LINE
  5
16EA
330
6B
100
AcDbEntity
  8
0
 62
     3
100
AcDbLine
 10
453.3440955525763
 20
229.8013038956367
 30
0.0
 11
453.3440955525763
 21
108.8013038956368
 31
0.0
  0
LINE
  5
16EB
330
6B
100
AcDbEntity
  8
0
 62
     7
100
AcDbLine
 10
474.7926532208441
 20
108.8013038956368
 30
0.0
 11
474.7926532208439
 21
229.8013038956367
 31
0.0
  0
LINE
  5
16EC
330
6B
100
AcDbEntity
  8
0
 62
     3
100
AcDbLine
 10
522.0770347147159
 20
108.8013038956368
 30
0.0
 11
522.0770347147158
 21
229.8013038956367
 31
0.0
  0
TEXT
  5
16ED
330
6B
100
AcDbEntity
  8
0
 62
     3
100
AcDbText
 10
470.5557733122734
 20
234.5351157726667
 30
0.0
 40
4.5
  1
主　　仕　　様
  7
高4.5
100
AcDbText
  0
LINE
  5
16EE
330
6B
100
AcDbEntity
  8
0
100
AcDbLine
 10
469.4548589445195
 20
233.6693626888239
 30
0.0
 11
508.0470792242054
 21
233.6693626888239
 31
0.0
  0
TEXT
  5
16EF
330
6B
100
AcDbEntity
  8
0
 62
     7
100
AcDbText
 10
452.2141852164993
 20
98.52543985520089
 30
0.0
 40
2.0
  1
注３）照度は当社実測値の為、使用環境下により異なります。
  7
高2
100
AcDbText
  0
TEXT
  5
16F0
330
6B
100
AcDbEntity
  8
0
 62
     7
100
AcDbText
 10
452.2141852164993
 20
95.52543985520088
 30
0.0
 40
2.0
  1
注４）球寿命は光束が70%%%に低下するまでの時間です。
  7
高2
100
AcDbText
  0
TEXT
  5
16F1
330
6B
100
AcDbEntity
  8
0
 62
     7
100
AcDbText
 10
452.2141852164993
 20
92.52543985520089
 30
0.0
 40
2.0
  1
　　　表示は設計値であり、製品の寿命を保証するものではありません。
  7
高2
100
AcDbText
  0
TEXT
  5
16F3
330
6B
100
AcDbEntity
  8
0
 62
     7
100
AcDbText
 10
452.2141852164993
 20
101.5254398552009
 30
0.0
 40
2.0
  1
注２）LEDの光色、明るさにはバラツキがあります。
  7
高2
100
AcDbText
  0
TEXT
  5
16F4
330
6B
100
AcDbEntity
  8
0
 62
     7
100
AcDbText
 10
452.2141852164993
 20
104.5254398552009
 30
0.0
 40
2.0
  1
注１）当器具のLED素子交換はできません。
  7
高2
100
AcDbText
  0
TEXT
  5
16F5
330
6B
100
AcDbEntity
  8
0
 62
     7
100
AcDbText
 10
452.2141852164993
 20
89.52543985520089
 30
0.0
 40
2.0
  1
注５）安全にご使用いただくため、取扱説明書をご参照ください。
  7
高2
100
AcDbText
  0
TEXT
  5
16F6
330
6B
100
AcDbEntity
  8
0
 62
     3
100
AcDbText
 10
454.8440955525761
 20
225.3013038956368
 30
0.0
 40
3.2
  1
型　　　式
 41
0.8
  7
高3.2
100
AcDbText
  0
LINE
  5
16F7
330
6B
100
AcDbEntity
  8
0
 62
     3
100
AcDbLine
 10
453.3440955525763
 20
229.8013038956367
 30
0.0
 11
522.0770347147158
 21
229.8013038956367
 31
0.0
  0
TEXT
  5
16F8
330
6B
100
AcDbEntity
  8
0
 62
     3
100
AcDbText
 10
476.292653220844
 20
225.3013038956368
 30
0.0
 40
3.2
  1
LFC12W-65K
  7
高3.2
100
AcDbText
  0
TEXT
  5
16F9
330
6B
100
AcDbEntity
  8
0
 62
     7
100
AcDbText
 10
452.2141852164993
 20
86.52543985520088
 30
0.0
 40
2.0
  1
注６）仕様変更は予告なく行う場合があります。予めご了承ください。
  7
高2
100
AcDbText
  0
TEXT
  5
16FA
330
6B
100
AcDbEntity
  8
0
 62
     3
100
AcDbText
 10
454.8440955525761
 20
208.8013038956367
 30
0.0
 40
3.2
  1
口金サイズ
 41
0.8
  7
高3.2
100
AcDbText
  0
LINE
  5
16FB
330
6B
100
AcDbEntity
  8
0
 62
     7
100
AcDbLine
 10
453.3440955525763
 20
213.3013038956367
 30
0.0
 11
522.0770347147159
 21
213.3013038956367
 31
0.0
  0
TEXT
  5
16FC
330
6B
100
AcDbEntity
  8
0
 62
     3
100
AcDbText
 10
476.292653220844
 20
208.8013038956367
 30
0.0
 40
3.2
  1
E26
  7
高3.2
100
AcDbText
  0
TEXT
  5
1700
330
6B
100
AcDbEntity
  8
0
 62
     3
100
AcDbText
 10
476.2926532208441
 20
109.8013038956366
 30
0.0
 40
3.2
  1
74g
  7
高3.2
100
AcDbText
  0
TEXT
  5
1701
330
6B
100
AcDbEntity
  8
0
 62
     3
100
AcDbText
 10
454.8440955525762
 20
109.8013038956366
 30
0.0
 40
3.2
  1
質　　　量
 41
0.8
  7
高3.2
100
AcDbText
  0
TEXT
  5
172F
330
6B
100
AcDbEntity
  8
0
 62
     3
100
AcDbText
 10
454.8440955525761
 20
214.3013038956367
 30
0.0
 40
3.2
  1
使用　場所
 41
0.8
  7
高3.2
100
AcDbText
  0
TEXT
  5
1730
330
6B
100
AcDbEntity
  8
0
 62
     3
100
AcDbText
 10
476.292653220844
 20
214.3013038956367
 30
0.0
 40
3.2
  1
屋内型
  7
高3.2
100
AcDbText
  0
TEXT
  5
1735
330
6B
100
AcDbEntity
  8
0
  6
Continuous
100
AcDbText
 10
527.702275654148
 20
33.20117199302979
 30
0.0
 40
3.2
  1
I
  7
高3.2
100
AcDbText
  0
LINE
  5
18A0
330
6B
100
AcDbEntity
  8
0
  6
Continuous
100
AcDbLine
 10
387.969236895762
 20
161.9327209999996
 30
0.0
 11
387.969236895762
 21
71.90718855987221
 31
0.0
  0
LINE
  5
18A1
330
6B
100
AcDbEntity
  8
0
  6
Continuous
100
AcDbLine
 10
437.9692368957616
 20
161.9327209999996
 30
0.0
 11
437.9692368957616
 21
71.90718855987221
 31
0.0
  0
LINE
  5
18A2
330
6B
100
AcDbEntity
  8
0
  6
Continuous
100
AcDbLine
 10
390.469236895762
 20
73.15718855987221
 30
0.0
 11
435.4692368957616
 21
73.15718855987221
 31
0.0
  0
LINE
  5
18A6
330
6B
100
AcDbEntity
  8
0
  6
Continuous
100
AcDbLine
 10
399.9752553957618
 20
103.3131040000003
 30
0.0
 11
399.9752553957618
 21
79.0799134814614
 31
0.0
  0
LINE
  5
18A7
330
6B
100
AcDbEntity
  8
0
  6
Continuous
100
AcDbLine
 10
425.9676233957616
 20
101.3131040000002
 30
0.0
 11
425.9676233957616
 21
79.0799134814614
 31
0.0
  0
LINE
  5
18A8
330
6B
100
AcDbEntity
  8
0
  6
Continuous
100
AcDbLine
 10
402.4752553957616
 20
80.3299134814614
 30
0.0
 11
423.4676233957616
 21
80.3299134814614
 31
0.0
  0
LINE
  5
18AC
330
6B
100
AcDbEntity
  8
0
  6
Continuous
100
AcDbLine
 10
388.9692368957617
 20
163.4327209999999
 30
0.0
 11
388.9692368957617
 21
244.8459513805162
 31
0.0
  0
LINE
  5
18AD
330
6B
100
AcDbEntity
  8
0
  6
Continuous
100
AcDbLine
 10
436.9692368957617
 20
163.4327209999999
 30
0.0
 11
436.9692368957617
 21
244.8459513805162
 31
0.0
  0
LINE
  5
18AE
330
6B
100
AcDbEntity
  8
0
  6
Continuous
100
AcDbLine
 10
391.4692368957617
 20
243.5959513805162
 30
0.0
 11
434.4692368957616
 21
243.5959513805162
 31
0.0
  0
LINE
  5
18B2
330
6B
100
AcDbEntity
  8
0
  6
Continuous
100
AcDbLine
 10
387.7192368957617
 20
162.1827209999996
 30
0.0
 11
376.8362520762153
 21
162.1827209999996
 31
0.0
  0
LINE
  5
18B3
330
6B
100
AcDbEntity
  8
0
  6
Continuous
100
AcDbLine
 10
412.7192368957616
 20
93.18272099999992
 30
0.0
 11
376.8362520762152
 21
93.18272099999992
 31
0.0
  0
LINE
  5
18B4
330
6B
100
AcDbEntity
  8
0
  6
Continuous
100
AcDbLine
 10
378.0862520762152
 20
159.6827209999996
 30
0.0
 11
378.0862520762152
 21
95.68272099999992
 31
0.0
  0
LINE
  5
18B8
330
6B
100
AcDbEntity
  8
0
  6
Continuous
100
AcDbLine
 10
412.7192368957616
 20
93.18272099999992
 30
0.0
 11
368.6658551575627
 21
93.18272099999992
 31
0.0
  0
LINE
  5
18B9
330
6B
100
AcDbEntity
  8
0
  6
Continuous
100
AcDbLine
 10
412.7192368957616
 20
226.6827209999999
 30
0.0
 11
368.6658551575628
 21
226.6827209999999
 31
0.0
  0
LINE
  5
18BA
330
6B
100
AcDbEntity
  8
0
  6
Continuous
100
AcDbLine
 10
369.9158551575627
 20
95.68272099999992
 30
0.0
 11
369.9158551575628
 21
224.1827209999999
 31
0.0
  0
LINE
  5
18BE
330
6B
100
AcDbEntity
  8
0
 62
     2
100
AcDbLine
 10
429.83499
 20
289.238679
 30
0.0
 11
429.8163629999998
 21
289.357947
 31
0.0
  0
LINE
  5
18BF
330
6B
100
AcDbEntity
  8
0
 62
     2
100
AcDbLine
 10
429.8163629999998
 20
289.357947
 30
0.0
 11
429.793992
 21
289.472151
 31
0.0
  0
LINE
  5
18C0
330
6B
100
AcDbEntity
  8
0
 62
     2
100
AcDbLine
 10
429.793992
 20
289.472151
 30
0.0
 11
429.76805
 21
289.580411
 31
0.0
  0
LINE
  5
18C1
330
6B
100
AcDbEntity
  8
0
 62
     2
100
AcDbLine
 10
429.76805
 20
289.580411
 30
0.0
 11
429.7387379999998
 21
289.681887
 31
0.0
  0
LINE
  5
18C2
330
6B
100
AcDbEntity
  8
0
 62
     2
100
AcDbLine
 10
429.7387379999998
 20
289.681887
 30
0.0
 11
429.706282
 21
289.775797
 31
0.0
  0
LINE
  5
18C3
330
6B
100
AcDbEntity
  8
0
 62
     2
100
AcDbLine
 10
429.706282
 20
289.775797
 30
0.0
 11
429.6709329999996
 21
289.861414
 31
0.0
  0
LINE
  5
18C4
330
6B
100
AcDbEntity
  8
0
 62
     2
100
AcDbLine
 10
429.6709329999996
 20
289.861414
 30
0.0
 11
429.632965
 21
289.938076
 31
0.0
  0
LINE
  5
18C5
330
6B
100
AcDbEntity
  8
0
 62
     2
100
AcDbLine
 10
429.632965
 20
289.938076
 30
0.0
 11
429.5926709999998
 21
290.005191
 31
0.0
  0
LINE
  5
18C6
330
6B
100
AcDbEntity
  8
0
 62
     2
100
AcDbLine
 10
429.5926709999998
 20
290.005191
 30
0.0
 11
429.5503619999998
 21
290.062241
 31
0.0
  0
LINE
  5
18C7
330
6B
100
AcDbEntity
  8
0
 62
     2
100
AcDbLine
 10
429.5503619999998
 20
290.062241
 30
0.0
 11
429.506365
 21
290.108784
 31
0.0
  0
LINE
  5
18C8
330
6B
100
AcDbEntity
  8
0
 62
     2
100
AcDbLine
 10
429.506365
 20
290.108784
 30
0.0
 11
429.461021
 21
290.14446
 31
0.0
  0
LINE
  5
18C9
330
6B
100
AcDbEntity
  8
0
 62
     2
100
AcDbLine
 10
429.461021
 20
290.14446
 30
0.0
 11
429.41468
 21
290.168993
 31
0.0
  0
LINE
  5
18CA
330
6B
100
AcDbEntity
  8
0
 62
     2
100
AcDbLine
 10
429.41468
 20
290.168993
 30
0.0
 11
429.3677
 21
290.182195
 31
0.0
  0
LINE
  5
18CB
330
6B
100
AcDbEntity
  8
0
 62
     2
100
AcDbLine
 10
429.3677
 20
290.182195
 30
0.0
 11
429.320445
 21
290.183963
 31
0.0
  0
LINE
  5
18CC
330
6B
100
AcDbEntity
  8
0
 62
     2
100
AcDbLine
 10
429.320445
 20
290.183963
 30
0.0
 11
429.273279
 21
290.174283
 31
0.0
  0
LINE
  5
18CD
330
6B
100
AcDbEntity
  8
0
 62
     2
100
AcDbLine
 10
429.273279
 20
290.174283
 30
0.0
 11
429.2265669999999
 21
290.153231
 31
0.0
  0
LINE
  5
18CE
330
6B
100
AcDbEntity
  8
0
 62
     2
100
AcDbLine
 10
429.2265669999999
 20
290.153231
 30
0.0
 11
429.18067
 21
290.120968
 31
0.0
  0
LINE
  5
18CF
330
6B
100
AcDbEntity
  8
0
 62
     2
100
AcDbLine
 10
429.18067
 20
290.120968
 30
0.0
 11
429.1359429999998
 21
290.077744
 31
0.0
  0
LINE
  5
18D0
330
6B
100
AcDbEntity
  8
0
 62
     2
100
AcDbLine
 10
429.1359429999998
 20
290.077744
 30
0.0
 11
429.092732
 21
290.023894
 31
0.0
  0
LINE
  5
18D1
330
6B
100
AcDbEntity
  8
0
 62
     2
100
AcDbLine
 10
429.092732
 20
290.023894
 30
0.0
 11
429.0513699999998
 21
289.959834
 31
0.0
  0
LINE
  5
18D2
330
6B
100
AcDbEntity
  8
0
 62
     2
100
AcDbLine
 10
429.0513699999998
 20
289.959834
 30
0.0
 11
429.0121779999998
 21
289.886058
 31
0.0
  0
LINE
  5
18D3
330
6B
100
AcDbEntity
  8
0
 62
     2
100
AcDbLine
 10
429.0121779999998
 20
289.886058
 30
0.0
 11
428.975458
 21
289.803137
 31
0.0
  0
LINE
  5
18D4
330
6B
100
AcDbEntity
  8
0
 62
     2
100
AcDbLine
 10
428.975458
 20
289.803137
 30
0.0
 11
428.941494
 21
289.711712
 31
0.0
  0
LINE
  5
18D5
330
6B
100
AcDbEntity
  8
0
 62
     2
100
AcDbLine
 10
428.941494
 20
289.711712
 30
0.0
 11
428.910548
 21
289.61249
 31
0.0
  0
LINE
  5
18D6
330
6B
100
AcDbEntity
  8
0
 62
     2
100
AcDbLine
 10
428.910548
 20
289.61249
 30
0.0
 11
428.882861
 21
289.506237
 31
0.0
  0
LINE
  5
18D7
330
6B
100
AcDbEntity
  8
0
 62
     2
100
AcDbLine
 10
428.882861
 20
289.506237
 30
0.0
 11
428.858645
 21
289.393775
 31
0.0
  0
LINE
  5
18D8
330
6B
100
AcDbEntity
  8
0
 62
     2
100
AcDbLine
 10
428.858645
 20
289.393775
 30
0.0
 11
428.838089
 21
289.275973
 31
0.0
  0
LINE
  5
18D9
330
6B
100
AcDbEntity
  8
0
 62
     2
100
AcDbLine
 10
428.838089
 20
289.275973
 30
0.0
 11
428.82135
 21
289.153742
 31
0.0
  0
LINE
  5
18DA
330
6B
100
AcDbEntity
  8
0
 62
     2
100
AcDbLine
 10
428.82135
 20
289.153742
 30
0.0
 11
428.8085579999998
 21
289.0280259999999
 31
0.0
  0
LINE
  5
18DB
330
6B
100
AcDbEntity
  8
0
 62
     2
100
AcDbLine
 10
428.8085579999998
 20
289.0280259999999
 30
0.0
 11
428.799813
 21
288.8997970000001
 31
0.0
  0
LINE
  5
18DC
330
6B
100
AcDbEntity
  8
0
 62
     2
100
AcDbLine
 10
428.799813
 20
288.8997970000001
 30
0.0
 11
428.795181
 21
288.770047
 31
0.0
  0
LINE
  5
18DD
330
6B
100
AcDbEntity
  8
0
 62
     2
100
AcDbLine
 10
428.795181
 20
288.770047
 30
0.0
 11
428.794699
 21
288.639778
 31
0.0
  0
LINE
  5
18DE
330
6B
100
AcDbEntity
  8
0
 62
     2
100
AcDbLine
 10
428.794699
 20
288.639778
 30
0.0
 11
428.7983709999998
 21
288.509997
 31
0.0
  0
LINE
  5
18DF
330
6B
100
AcDbEntity
  8
0
 62
     2
100
AcDbLine
 10
428.7983709999998
 20
288.509997
 30
0.0
 11
428.806167
 21
288.381707
 31
0.0
  0
LINE
  5
18E0
330
6B
100
AcDbEntity
  8
0
 62
     2
100
AcDbLine
 10
428.806167
 20
288.381707
 30
0.0
 11
428.818028
 21
288.2559
 31
0.0
  0
LINE
  5
18E1
330
6B
100
AcDbEntity
  8
0
 62
     2
100
AcDbLine
 10
428.818028
 20
288.2559
 30
0.0
 11
428.833861
 21
288.133548
 31
0.0
  0
LINE
  5
18E2
330
6B
100
AcDbEntity
  8
0
 62
     2
100
AcDbLine
 10
428.833861
 20
288.133548
 30
0.0
 11
428.853546
 21
288.015597
 31
0.0
  0
LINE
  5
18E3
330
6B
100
AcDbEntity
  8
0
 62
     2
100
AcDbLine
 10
428.853546
 20
288.015597
 30
0.0
 11
428.876928
 21
287.902959
 31
0.0
  0
LINE
  5
18E4
330
6B
100
AcDbEntity
  8
0
 62
     2
100
AcDbLine
 10
428.876928
 20
287.902959
 30
0.0
 11
428.903829
 21
287.796504
 31
0.0
  0
LINE
  5
18E5
330
6B
100
AcDbEntity
  8
0
 62
     2
100
AcDbLine
 10
428.903829
 20
287.796504
 30
0.0
 11
428.9340389999998
 21
287.697056
 31
0.0
  0
LINE
  5
18E6
330
6B
100
AcDbEntity
  8
0
 62
     2
100
AcDbLine
 10
428.9340389999998
 20
287.697056
 30
0.0
 11
428.9673259999998
 21
287.605382
 31
0.0
  0
LINE
  5
18E7
330
6B
100
AcDbEntity
  8
0
 62
     2
100
AcDbLine
 10
428.9673259999998
 20
287.605382
 30
0.0
 11
429.003431
 21
287.522192
 31
0.0
  0
LINE
  5
18E8
330
6B
100
AcDbEntity
  8
0
 62
     2
100
AcDbLine
 10
429.003431
 20
287.522192
 30
0.0
 11
429.0420759999998
 21
287.448128
 31
0.0
  0
LINE
  5
18E9
330
6B
100
AcDbEntity
  8
0
 62
     2
100
AcDbLine
 10
429.0420759999998
 20
287.448128
 30
0.0
 11
429.082963
 21
287.383763
 31
0.0
  0
LINE
  5
18EA
330
6B
100
AcDbEntity
  8
0
 62
     2
100
AcDbLine
 10
429.082963
 20
287.383763
 30
0.0
 11
429.125774
 21
287.3295950000001
 31
0.0
  0
LINE
  5
18EB
330
6B
100
AcDbEntity
  8
0
 62
     2
100
AcDbLine
 10
429.125774
 20
287.3295950000001
 30
0.0
 11
429.1701799999998
 21
287.286041
 31
0.0
  0
LINE
  5
18EC
330
6B
100
AcDbEntity
  8
0
 62
     2
100
AcDbLine
 10
429.1701799999998
 20
287.286041
 30
0.0
 11
429.215837
 21
287.25344
 31
0.0
  0
LINE
  5
18ED
330
6B
100
AcDbEntity
  8
0
 62
     2
100
AcDbLine
 10
429.215837
 20
287.25344
 30
0.0
 11
429.2623919999998
 21
287.232042
 31
0.0
  0
LINE
  5
18EE
330
6B
100
AcDbEntity
  8
0
 62
     2
100
AcDbLine
 10
429.2623919999998
 20
287.232042
 30
0.0
 11
429.3094849999998
 21
287.222013
 31
0.0
  0
LINE
  5
18EF
330
6B
100
AcDbEntity
  8
0
 62
     2
100
AcDbLine
 10
429.3094849999998
 20
287.222013
 30
0.0
 11
429.356753
 21
287.223432
 31
0.0
  0
LINE
  5
18F0
330
6B
100
AcDbEntity
  8
0
 62
     2
100
AcDbLine
 10
429.356753
 20
287.223432
 30
0.0
 11
429.403829
 21
287.236285
 31
0.0
  0
LINE
  5
18F1
330
6B
100
AcDbEntity
  8
0
 62
     2
100
AcDbLine
 10
429.403829
 20
287.236285
 30
0.0
 11
429.45035
 21
287.260476
 31
0.0
  0
LINE
  5
18F2
330
6B
100
AcDbEntity
  8
0
 62
     2
100
AcDbLine
 10
429.45035
 20
287.260476
 30
0.0
 11
429.495957
 21
287.295815
 31
0.0
  0
LINE
  5
18F3
330
6B
100
AcDbEntity
  8
0
 62
     2
100
AcDbLine
 10
429.495957
 20
287.295815
 30
0.0
 11
429.5402969999998
 21
287.342031
 31
0.0
  0
LINE
  5
18F4
330
6B
100
AcDbEntity
  8
0
 62
     2
100
AcDbLine
 10
429.5402969999998
 20
287.342031
 30
0.0
 11
429.5830269999998
 21
287.398766
 31
0.0
  0
LINE
  5
18F5
330
6B
100
AcDbEntity
  8
0
 62
     2
100
AcDbLine
 10
429.5830269999998
 20
287.398766
 30
0.0
 11
429.6238169999998
 21
287.465581
 31
0.0
  0
LINE
  5
18F6
330
6B
100
AcDbEntity
  8
0
 62
     2
100
AcDbLine
 10
429.6238169999998
 20
287.465581
 30
0.0
 11
429.6623509999998
 21
287.54196
 31
0.0
  0
LINE
  5
18F7
330
6B
100
AcDbEntity
  8
0
 62
     2
100
AcDbLine
 10
429.6623509999998
 20
287.54196
 30
0.0
 11
429.698332
 21
287.627313
 31
0.0
  0
LINE
  5
18F8
330
6B
100
AcDbEntity
  8
0
 62
     2
100
AcDbLine
 10
429.698332
 20
287.627313
 30
0.0
 11
429.731482
 21
287.72098
 31
0.0
  0
LINE
  5
18F9
330
6B
100
AcDbEntity
  8
0
 62
     2
100
AcDbLine
 10
429.731482
 20
287.72098
 30
0.0
 11
429.761544
 21
287.8222370000001
 31
0.0
  0
LINE
  5
18FA
330
6B
100
AcDbEntity
  8
0
 62
     2
100
AcDbLine
 10
429.761544
 20
287.8222370000001
 30
0.0
 11
429.788287
 21
287.930301
 31
0.0
  0
LINE
  5
18FB
330
6B
100
AcDbEntity
  8
0
 62
     2
100
AcDbLine
 10
429.788287
 20
287.930301
 30
0.0
 11
429.811502
 21
288.044337
 31
0.0
  0
LINE
  5
18FC
330
6B
100
AcDbEntity
  8
0
 62
     2
100
AcDbLine
 10
429.811502
 20
288.044337
 30
0.0
 11
429.831012
 21
288.1634640000001
 31
0.0
  0
TEXT
  5
18FD
330
6B
100
AcDbEntity
  8
0
  6
Continuous
 62
     4
100
AcDbText
 10
409.2192368957616
 20
73.78218855987221
 30
0.0
 40
3.0
  1
\U+220550
100
AcDbText
  0
LINE
  5
18FE
330
6B
100
AcDbEntity
  8
0
  6
ByBlock
 62
     0
370
    -2
100
AcDbLine
 10
435.4692368957616
 20
73.82706105987221
 30
0.0
 11
437.9692368957616
 21
73.15718855987221
 31
0.0
  0
LINE
  5
18FF
330
6B
100
AcDbEntity
  8
0
  6
ByBlock
 62
     0
370
    -2
100
AcDbLine
 10
437.9692368957616
 20
73.15718855987221
 30
0.0
 11
435.4692368957616
 21
72.48731605987221
 31
0.0
  0
LINE
  5
1900
330
6B
100
AcDbEntity
  8
0
  6
ByBlock
 62
     0
370
    -2
100
AcDbLine
 10
437.9692368957616
 20
73.15718855987221
 30
0.0
 11
435.4692368957616
 21
73.15718855987221
 31
0.0
  0
LINE
  5
1901
330
6B
100
AcDbEntity
  8
0
  6
ByBlock
 62
     0
370
    -2
100
AcDbLine
 10
390.469236895762
 20
72.48731605987221
 30
0.0
 11
387.969236895762
 21
73.15718855987221
 31
0.0
  0
LINE
  5
1902
330
6B
100
AcDbEntity
  8
0
  6
ByBlock
 62
     0
370
    -2
100
AcDbLine
 10
387.969236895762
 20
73.15718855987221
 30
0.0
 11
390.469236895762
 21
73.82706105987221
 31
0.0
  0
LINE
  5
1903
330
6B
100
AcDbEntity
  8
0
  6
ByBlock
 62
     0
370
    -2
100
AcDbLine
 10
387.969236895762
 20
73.15718855987221
 30
0.0
 11
390.469236895762
 21
73.15718855987221
 31
0.0
  0
TEXT
  5
1904
330
6B
100
AcDbEntity
  8
0
  6
Continuous
 62
     4
100
AcDbText
 10
408.9714393957613
 20
80.9549134814614
 30
0.0
 40
3.0
  1
E26
100
AcDbText
  0
LINE
  5
1905
330
6B
100
AcDbEntity
  8
0
  6
ByBlock
 62
     0
370
    -2
100
AcDbLine
 10
423.4676233957616
 20
80.9997859814614
 30
0.0
 11
425.9676233957616
 21
80.3299134814614
 31
0.0
  0
LINE
  5
1906
330
6B
100
AcDbEntity
  8
0
  6
ByBlock
 62
     0
370
    -2
100
AcDbLine
 10
425.9676233957616
 20
80.3299134814614
 30
0.0
 11
423.4676233957616
 21
79.6600409814614
 31
0.0
  0
LINE
  5
1907
330
6B
100
AcDbEntity
  8
0
  6
ByBlock
 62
     0
370
    -2
100
AcDbLine
 10
425.9676233957616
 20
80.3299134814614
 30
0.0
 11
423.4676233957616
 21
80.3299134814614
 31
0.0
  0
LINE
  5
1908
330
6B
100
AcDbEntity
  8
0
  6
ByBlock
 62
     0
370
    -2
100
AcDbLine
 10
402.4752553957616
 20
79.6600409814614
 30
0.0
 11
399.9752553957618
 21
80.3299134814614
 31
0.0
  0
LINE
  5
1909
330
6B
100
AcDbEntity
  8
0
  6
ByBlock
 62
     0
370
    -2
100
AcDbLine
 10
399.9752553957618
 20
80.3299134814614
 30
0.0
 11
402.4752553957616
 21
80.9997859814614
 31
0.0
  0
LINE
  5
190A
330
6B
100
AcDbEntity
  8
0
  6
ByBlock
 62
     0
370
    -2
100
AcDbLine
 10
399.9752553957618
 20
80.3299134814614
 30
0.0
 11
402.4752553957616
 21
80.3299134814614
 31
0.0
  0
TEXT
  5
190B
330
6B
100
AcDbEntity
  8
0
  6
Continuous
 62
     4
100
AcDbText
 10
408.9692368957616
 20
244.2209513805162
 30
0.0
 40
3.0
  1
\U+220548
100
AcDbText
  0
LINE
  5
190C
330
6B
100
AcDbEntity
  8
0
  6
ByBlock
 62
     0
370
    -2
100
AcDbLine
 10
434.4692368957616
 20
244.2658238805162
 30
0.0
 11
436.9692368957617
 21
243.5959513805162
 31
0.0
  0
LINE
  5
190D
330
6B
100
AcDbEntity
  8
0
  6
ByBlock
 62
     0
370
    -2
100
AcDbLine
 10
436.9692368957617
 20
243.5959513805162
 30
0.0
 11
434.4692368957616
 21
242.9260788805162
 31
0.0
  0
LINE
  5
190E
330
6B
100
AcDbEntity
  8
0
  6
ByBlock
 62
     0
370
    -2
100
AcDbLine
 10
436.9692368957617
 20
243.5959513805162
 30
0.0
 11
434.4692368957616
 21
243.5959513805162
 31
0.0
  0
LINE
  5
190F
330
6B
100
AcDbEntity
  8
0
  6
ByBlock
 62
     0
370
    -2
100
AcDbLine
 10
391.4692368957617
 20
242.9260788805162
 30
0.0
 11
388.9692368957617
 21
243.5959513805162
 31
0.0
  0
LINE
  5
1910
330
6B
100
AcDbEntity
  8
0
  6
ByBlock
 62
     0
370
    -2
100
AcDbLine
 10
388.9692368957617
 20
243.5959513805162
 30
0.0
 11
391.4692368957617
 21
244.2658238805162
 31
0.0
  0
LINE
  5
1911
330
6B
100
AcDbEntity
  8
0
  6
ByBlock
 62
     0
370
    -2
100
AcDbLine
 10
388.9692368957617
 20
243.5959513805162
 30
0.0
 11
391.4692368957617
 21
243.5959513805162
 31
0.0
  0
TEXT
  5
1912
330
6B
100
AcDbEntity
  8
0
  6
Continuous
 62
     4
100
AcDbText
 10
377.4612520762152
 20
125.1827209999998
 30
0.0
 40
3.0
  1
69
 50
90.0
100
AcDbText
  0
LINE
  5
1913
330
6B
100
AcDbEntity
  8
0
  6
ByBlock
 62
     0
370
    -2
100
AcDbLine
 10
378.7561245762152
 20
95.68272099999992
 30
0.0
 11
378.0862520762152
 21
93.18272099999992
 31
0.0
  0
LINE
  5
1914
330
6B
100
AcDbEntity
  8
0
  6
ByBlock
 62
     0
370
    -2
100
AcDbLine
 10
378.0862520762152
 20
93.18272099999992
 30
0.0
 11
377.4163795762152
 21
95.68272099999992
 31
0.0
  0
LINE
  5
1915
330
6B
100
AcDbEntity
  8
0
  6
ByBlock
 62
     0
370
    -2
100
AcDbLine
 10
378.0862520762152
 20
93.18272099999992
 30
0.0
 11
378.0862520762152
 21
95.68272099999992
 31
0.0
  0
LINE
  5
1916
330
6B
100
AcDbEntity
  8
0
  6
ByBlock
 62
     0
370
    -2
100
AcDbLine
 10
377.4163795762153
 20
159.6827209999996
 30
0.0
 11
378.0862520762152
 21
162.1827209999996
 31
0.0
  0
LINE
  5
1917
330
6B
100
AcDbEntity
  8
0
  6
ByBlock
 62
     0
370
    -2
100
AcDbLine
 10
378.0862520762152
 20
162.1827209999996
 30
0.0
 11
378.7561245762153
 21
159.6827209999996
 31
0.0
  0
LINE
  5
1918
330
6B
100
AcDbEntity
  8
0
  6
ByBlock
 62
     0
370
    -2
100
AcDbLine
 10
378.0862520762152
 20
162.1827209999996
 30
0.0
 11
378.0862520762152
 21
159.6827209999996
 31
0.0
  0
TEXT
  5
1919
330
6B
100
AcDbEntity
  8
0
  6
Continuous
 62
     4
100
AcDbText
 10
369.2908551575627
 20
154.4327209999999
 30
0.0
 40
3.0
  1
133.5
 50
90.0
100
AcDbText
  0
LINE
  5
191A
330
6B
100
AcDbEntity
  8
0
  6
ByBlock
 62
     0
370
    -2
100
AcDbLine
 10
369.2459826575628
 20
224.1827209999999
 30
0.0
 11
369.9158551575628
 21
226.6827209999999
 31
0.0
  0
LINE
  5
191B
330
6B
100
AcDbEntity
  8
0
  6
ByBlock
 62
     0
370
    -2
100
AcDbLine
 10
369.9158551575628
 20
226.6827209999999
 30
0.0
 11
370.5857276575628
 21
224.1827209999999
 31
0.0
  0
LINE
  5
191C
330
6B
100
AcDbEntity
  8
0
  6
ByBlock
 62
     0
370
    -2
100
AcDbLine
 10
369.9158551575628
 20
226.6827209999999
 30
0.0
 11
369.9158551575628
 21
224.1827209999999
 31
0.0
  0
LINE
  5
191D
330
6B
100
AcDbEntity
  8
0
  6
ByBlock
 62
     0
370
    -2
100
AcDbLine
 10
370.5857276575627
 20
95.68272099999992
 30
0.0
 11
369.9158551575627
 21
93.18272099999992
 31
0.0
  0
LINE
  5
191E
330
6B
100
AcDbEntity
  8
0
  6
ByBlock
 62
     0
370
    -2
100
AcDbLine
 10
369.9158551575627
 20
93.18272099999992
 30
0.0
 11
369.2459826575627
 21
95.68272099999992
 31
0.0
  0
LINE
  5
191F
330
6B
100
AcDbEntity
  8
0
  6
ByBlock
 62
     0
370
    -2
100
AcDbLine
 10
369.9158551575627
 20
93.18272099999992
 30
0.0
 11
369.9158551575627
 21
95.68272099999992
 31
0.0
  0
ENDSEC
  0
SECTION
  2
OBJECTS
  0
DICTIONARY
  5
C
330
0
100
AcDbDictionary
281
     1
  3
ACAD_2007HEADERVARS_RT
350
1923
  3
ACAD_COLOR
350
62
  3
ACAD_GROUP
350
D
  3
ACAD_LAYOUT
350
61
  3
ACAD_MATERIAL
350
10
  3
ACAD_MLEADERSTYLE
350
65
  3
ACAD_MLINESTYLE
350
5E
  3
ACAD_PLOTSETTINGS
350
60
  3
ACAD_PLOTSTYLENAME
350
E
  3
ACAD_SCALELIST
350
42
  3
ACAD_TABLESTYLE
350
63
  3
ACAD_VISUALSTYLE
350
29
  3
ACDB_RECOMPOSE_DATA
350
1921
  3
AcDbVariableDictionary
350
548
  3
DWGPROPS
350
1922
  0
DICTIONARY
  5
3EB
330
2
100
AcDbDictionary
280
     1
281
     1
  3
ACAD_LAYERSTATES
360
3EC
  0
DICTIONARY
  5
544
330
54
100
AcDbDictionary
280
     1
281
     1
  3
ADSK_XREC_LAYER_RECONCILED
360
545
  0
DICTIONARY
  5
AE3
330
6B
100
AcDbDictionary
280
     1
281
     1
  3
ACAD_SORTENTS
360
AE4
  0
DICTIONARY
  5
1923
102
{ACAD_REACTORS
330
C
102
}
330
C
100
AcDbDictionary
281
     1
  3
DIMARCSYM
350
1925
  3
DIMFXL
350
1924
  3
DIMJOGANG
350
1926
  0
DICTIONARY
  5
62
102
{ACAD_REACTORS
330
C
102
}
330
C
100
AcDbDictionary
281
     1
  0
DICTIONARY
  5
D
102
{ACAD_REACTORS
330
C
102
}
330
C
100
AcDbDictionary
281
     1
  0
DICTIONARY
  5
61
102
{ACAD_REACTORS
330
C
102
}
330
C
100
AcDbDictionary
281
     1
  3
Model
350
6E
  3
レイアウト1
350
6A
  0
DICTIONARY
  5
10
102
{ACAD_REACTORS
330
C
102
}
330
C
100
AcDbDictionary
281
     1
  3
ByBlock
350
19
  3
ByLayer
350
11
  3
Global
350
21
  0
DICTIONARY
  5
65
102
{ACAD_REACTORS
330
C
102
}
330
C
100
AcDbDictionary
281
     1
  3
Standard
350
66
  0
DICTIONARY
  5
5E
102
{ACAD_REACTORS
330
C
102
}
330
C
100
AcDbDictionary
281
     1
  3
Standard
350
5F
  0
DICTIONARY
  5
60
102
{ACAD_REACTORS
330
C
102
}
330
C
100
AcDbDictionary
281
     1
  0
ACDBDICTIONARYWDFLT
  5
E
102
{ACAD_REACTORS
330
C
102
}
330
C
100
AcDbDictionary
281
     1
  3
Normal
350
F
100
AcDbDictionaryWithDefault
340
F
  0
DICTIONARY
  5
42
102
{ACAD_REACTORS
330
C
102
}
330
C
100
AcDbDictionary
281
     1
  3
A0
350
43
  3
A1
350
44
  3
A2
350
45
  3
A3
350
46
  3
A4
350
47
  3
A5
350
48
  3
A6
350
49
  3
A7
350
4A
  3
A8
350
4B
  3
A9
350
4C
  3
B0
350
4D
  3
B1
350
4E
  3
B2
350
4F
  3
B3
350
50
  3
B4
350
51
  3
B5
350
52
  3
B6
350
53
  0
DICTIONARY
  5
63
102
{ACAD_REACTORS
330
C
102
}
330
C
100
AcDbDictionary
281
     1
  3
Standard
350
64
  0
DICTIONARY
  5
29
102
{ACAD_REACTORS
330
C
102
}
330
C
100
AcDbDictionary
281
     1
  3
2dWireframe
350
2F
  3
3dWireframe
350
3EA
  3
Basic
350
2E
  3
Brighten
350
35
  3
ColorChange
350
39
  3
Conceptual
350
32
  3
Dim
350
34
  3
EdgeColorOff
350
41
  3
Facepattern
350
38
  3
Flat
350
2A
  3
FlatWithEdges
350
2B
  3
Gouraud
350
2C
  3
GouraudWithEdges
350
2D
  3
Hidden
350
31
  3
JitterOff
350
3F
  3
Linepattern
350
37
  3
OverhangOff
350
40
  3
Realistic
350
33
  3
Shaded
350
3E
  3
Shaded with edges
350
3D
  3
Shades of Gray
350
3A
  3
Sketchy
350
3B
  3
Thicken
350
36
  3
Wireframe
350
30
  3
X-Ray
350
3C
  0
XRECORD
  5
1921
102
{ACAD_REACTORS
330
C
102
}
330
C
100
AcDbXrecord
280
     1
 90
        1
330
64
  0
DICTIONARY
  5
548
102
{ACAD_REACTORS
330
C
102
}
330
C
100
AcDbDictionary
281
     1
  3
CANNOSCALE
350
54B
  3
CMLEADERSTYLE
350
54A
  3
CTABLESTYLE
350
549
  3
DIMASSOC
350
54E
  3
INDEXCTL
350
54D
  3
SORTENTS
350
54C
  3
XCLIPFRAME
350
1861
  0
XRECORD
  5
1922
102
{ACAD_REACTORS
330
C
102
}
330
C
100
AcDbXrecord
280
     1
  1
DWGPROPS COOKIE
  2

  3

  4

  6

  7

  8
imamura
  9

300
=
301
=
302
=
303
=
304
=
305
=
306
=
307
=
308
=
309
=
 40
0.2643478125
 41
2456071.583394271
 42
2457630.492907385
  1

 90
        0
  0
DICTIONARY
  5
3EC
102
{ACAD_REACTORS
330
3EB
102
}
330
3EB
100
AcDbDictionary
281
     1
  0
XRECORD
  5
545
102
{ACAD_REACTORS
330
544
102
}
330
544
100
AcDbXrecord
280
     1
290
     1
  0
SORTENTSTABLE
  5
AE4
102
{ACAD_REACTORS
330
AE3
102
}
330
AE3
100
AcDbSortentsTable
330
6B
331
16ED
  5
190C
331
1700
  5
191B
331
16E9
  5
1908
331
18CC
  5
176
331
1907
  5
18B3
331
1AE
  5
1447
331
18C8
  5
172
331
1903
  5
18BA
331
1454
  5
16B4
331
1AA
  5
1443
331
18C4
  5
16E
331
1E5
  5
146D
331
18C0
  5
16A
331
1450
  5
16B0
331
1A6
  5
342
331
F4
  5
F4
331
1E1
  5
146A
331
16C5
  5
18E9
331
144C
  5
16AC
331
1A2
  5
30B
331
16F
  5
1C2
331
F0
  5
F0
331
16C1
  5
18E5
331
1448
  5
16A8
331
16B
  5
1BE
331
EC
  5
EC
331
E8
  5
E8
331
16FC
  5
191A
331
16E5
  5
1905
331
16F8
  5
1916
331
16E1
  5
1901
331
16F4
  5
1912
331
16F0
  5
190F
331
16D9
  5
18FA
331
18FF
  5
18BC
331
18FB
  5
1AD
331
18B8
  5
16DB
331
18F7
  5
1A9
331
1527
  5
16D8
331
1DD
  5
1466
331
18B4
  5
16F8
331
18F3
  5
1A5
331
1D9
  5
1462
331
16BD
  5
18E2
331
1444
  5
153B
331
19A
  5
203
331
1D5
  5
145E
331
E4
  5
E4
331
123
  5
123
331
196
  5
1FF
331
1D1
  5
145A
331
151B
  5
16DA
331
192
  5
1E6
331
30C
  5
1533
331
E0
  5
E0
331
11F
  5
11F
331
16B1
  5
18D9
331
11B
  5
11B
331
DC
  5
DC
331
D8
  5
D8
331
16D1
  5
18F3
331
16CD
  5
18EF
331
191D
  5
16E2
331
16C9
  5
18ED
331
1919
  5
16EC
331
18EF
  5
19D
331
18AC
  5
18A1
331
18EB
  5
199
331
18A8
  5
18AD
331
18E7
  5
195
331
1CD
  5
1456
331
18E
  5
1E4
331
18E3
  5
190
331
1C9
  5
1452
331
16AD
  5
18D5
331
1473
  5
16D6
331
18A
  5
1E1
331
117
  5
117
331
18A0
  5
18B5
331
16A9
  5
18D1
331
186
  5
1DD
331
D4
  5
D4
331
113
  5
113
331
1C1
  5
144E
331
146B
  5
16D1
331
182
  5
1D9
331
16A5
  5
18CE
331
204
  5
152A
331
D0
  5
D0
331
10F
  5
10F
331
200
  5
1491
331
10B
  5
10B
331
C8
  5
C8
331
342
  5
1536
331
1915
  5
1735
331
1911
  5
18A6
331
190D
  5
18A8
331
1909
  5
18AF
331
18DF
  5
189
331
18DB
  5
185
331
1467
  5
16CD
331
17E
  5
1D5
331
18D7
  5
181
331
1463
  5
16C7
331
17A
  5
1D1
331
18D3
  5
17D
331
107
  5
107
331
1539
  5
18CA
331
145F
  5
16C3
331
176
  5
1CD
331
C4
  5
C4
331
103
  5
103
331
145B
  5
16BF
331
172
  5
1C9
331
C0
  5
C0
331
FF
  5
FF
331
1531
  5
18C5
331
1E8
  5
1473
331
FB
  5
FB
331
BC
  5
BC
331
172F
  5
191D
331
16EC
  5
190B
331
16E8
  5
1907
331
18CF
  5
179
331
18CB
  5
175
331
1906
  5
18B2
331
1457
  5
16BA
331
1AD
  5
1446
331
18C7
  5
171
331
1902
  5
18B9
331
1453
  5
16B3
331
1A9
  5
1442
331
18C3
  5
16D
331
F7
  5
F7
331
1E4
  5
146C
331
144F
  5
16AF
331
1A5
  5
341
331
F3
  5
F3
331
152A
  5
18C0
331
1E0
  5
1469
331
16C4
  5
18E8
331
144B
  5
16AB
331
16E
  5
1C1
331
EF
  5
EF
331
16C0
  5
18E4
331
16A
  5
1B8
331
EB
  5
EB
331
16FB
  5
1919
331
16E4
  5
1904
331
16F7
  5
1915
331
16E0
  5
1900
331
16F3
  5
1911
331
16DC
  5
18FD
331
16D8
  5
18F9
331
18FE
  5
18BB
331
18BF
  5
169
331
18FA
  5
1AC
331
18F6
  5
1A8
331
1DC
  5
1465
331
1526
  5
18C4
331
1447
  5
16A6
331
19D
  5
30A
331
18B3
  5
16F4
331
18F2
  5
1A4
331
1D8
  5
1461
331
1735
  5
191F
331
16BC
  5
18E1
331
1443
  5
153A
331
199
  5
202
331
E7
  5
E7
331
1D4
  5
145D
331
16B8
  5
18DE
331
151E
  5
18BF
331
195
  5
1EA
331
E3
  5
E3
331
122
  5
122
331
151A
  5
18C1
331
1D0
  5
1459
331
16B4
  5
18DC
331
30B
  5
1532
331
DF
  5
DF
331
11E
  5
11E
331
16B0
  5
18D8
331
11A
  5
11A
331
DB
  5
DB
331
16D4
  5
18F6
331
16D0
  5
18F2
331
191C
  5
16EB
331
16C8
  5
18EC
331
1918
  5
1701
331
18EE
  5
19C
331
18EA
  5
198
331
18A7
  5
18AC
331
18E6
  5
194
331
237
  5
152F
331
1CC
  5
1455
331
18E2
  5
18E
331
1C8
  5
1451
331
16AC
  5
18D4
331
D7
  5
D7
331
116
  5
116
331
189
  5
1E0
331
16A8
  5
18D0
331
146E
  5
16D4
331
185
  5
1DC
331
D3
  5
D3
331
112
  5
112
331
1C0
  5
144D
331
146A
  5
16D0
331
181
  5
1D8
331
203
  5
1529
331
CF
  5
CF
331
10E
  5
10E
331
10A
  5
10A
331
CB
  5
CB
331
341
  5
1535
331
1914
  5
1730
331
1910
  5
18A5
331
190C
  5
18A7
331
1908
  5
18AE
331
18DE
  5
188
331
18DA
  5
184
331
1466
  5
16CA
331
17D
  5
1D4
331
18D6
  5
180
331
1FF
  5
1490
331
1B8
  5
144A
331
18D2
  5
17C
331
153C
  5
18CD
331
1462
  5
16C6
331
179
  5
1D0
331
C7
  5
C7
331
106
  5
106
331
1538
  5
18C9
331
145E
  5
16C2
331
175
  5
1CC
331
C3
  5
C3
331
102
  5
102
331
1B0
  5
1448
331
145A
  5
16BD
331
171
  5
1C8
331
BF
  5
BF
331
FE
  5
FE
331
FA
  5
FA
331
BB
  5
BB
331
16EF
  5
190E
331
16EB
  5
190A
331
18CE
  5
178
331
18CA
  5
174
331
1905
  5
18B1
331
1456
  5
16B8
331
1AC
  5
1445
331
18C6
  5
170
331
1901
  5
18B8
331
1452
  5
16B2
331
1A8
  5
344
331
18C2
  5
16C
331
F6
  5
F6
331
1E3
  5
146B
331
16C7
  5
18EB
331
144E
  5
16AE
331
1A4
  5
30D
331
F2
  5
F2
331
16C3
  5
18E7
331
144A
  5
16AA
331
16D
  5
1C0
331
EE
  5
EE
331
169
  5
1B2
331
EA
  5
EA
331
16FA
  5
1918
331
16E3
  5
1903
331
16F6
  5
1914
331
16DF
  5
18FF
331
16DB
  5
18FC
331
18FD
  5
18BE
331
18BE
  5
168
331
18BA
  5
16DE
331
18F9
  5
1AB
331
1DF
  5
1468
331
18F5
  5
1A7
331
1DB
  5
1464
331
1525
  5
18C3
331
16BF
  5
18E3
331
1446
  5
16A5
331
19C
  5
237
331
18B2
  5
16F3
331
18F1
  5
1A3
331
1D7
  5
1460
331
16BB
  5
18E0
331
1442
  5
1539
331
198
  5
201
331
E6
  5
E6
331
125
  5
125
331
1D3
  5
145C
331
1730
  5
191E
331
16B7
  5
18DD
331
151D
  5
18C2
331
194
  5
1E9
331
E2
  5
E2
331
121
  5
121
331
16B3
  5
18DB
331
30A
  5
1530
331
190
  5
1E5
331
11D
  5
11D
331
DE
  5
DE
331
119
  5
119
331
DA
  5
DA
331
16D7
  5
18F8
331
16D3
  5
18F5
331
16CF
  5
18F1
331
191F
  5
16E4
331
191B
  5
16E6
331
18AE
  5
18A3
331
18ED
  5
19B
331
18E9
  5
197
331
1CF
  5
1458
331
18A6
  5
18AB
331
18E5
  5
193
331
16AF
  5
18D7
331
1CB
  5
1454
331
18A2
  5
18B7
331
18E1
  5
18B
331
1C7
  5
1450
331
16AB
  5
18D3
331
D6
  5
D6
331
115
  5
115
331
188
  5
1DF
331
146D
  5
16D3
331
184
  5
1DB
331
D2
  5
D2
331
111
  5
111
331
1469
  5
16CF
331
180
  5
1D7
331
202
  5
151F
331
CE
  5
CE
331
10D
  5
10D
331
109
  5
109
331
CA
  5
CA
331
344
  5
1538
331
1917
  5
16FA
331
1913
  5
172F
331
190F
  5
18A4
331
190B
  5
18AA
331
18DD
  5
187
331
1BF
  5
144C
331
18D9
  5
183
331
1465
  5
16C9
331
17C
  5
1D3
331
18D5
  5
17F
331
153B
  5
18CB
331
1461
  5
16C5
331
178
  5
1CF
331
18D1
  5
17B
331
C6
  5
C6
331
105
  5
105
331
1537
  5
18C8
331
145D
  5
16C1
331
174
  5
1CB
331
C2
  5
C2
331
101
  5
101
331
1459
  5
16BC
331
170
  5
1C7
331
1533
  5
18C7
331
1EA
  5
148F
331
BE
  5
BE
331
FD
  5
FD
331
F9
  5
F9
331
16EE
  5
190D
331
1701
  5
191C
331
16EA
  5
1909
331
18CD
  5
177
331
18C9
  5
173
331
1904
  5
18B4
331
1455
  5
16B7
331
1AB
  5
1444
331
18C5
  5
16F
331
1900
  5
18BD
331
1E6
  5
146E
331
18C1
  5
16B
331
1451
  5
16B1
331
1A7
  5
343
331
F5
  5
F5
331
16C6
  5
18EA
331
144D
  5
16AD
331
1A3
  5
30C
331
F1
  5
F1
331
1528
  5
16D7
331
16C2
  5
18E6
331
1449
  5
16A9
331
16C
  5
1BF
331
ED
  5
ED
331
168
  5
1B0
331
E9
  5
E9
331
1488
  5
16F1
331
16E6
  5
1906
331
16F9
  5
1917
331
16E2
  5
1902
331
16F5
  5
1913
331
16DE
  5
18FE
331
16F1
  5
1910
331
16DA
  5
18FB
331
18FC
  5
1AE
331
18B9
  5
16DC
331
18F8
  5
1AA
331
1DE
  5
1467
331
18F4
  5
1A6
331
1DA
  5
1463
331
1445
  5
153C
331
19B
  5
204
331
18F0
  5
1A2
331
1D6
  5
145F
331
16BA
  5
18DF
331
E5
  5
E5
331
124
  5
124
331
197
  5
200
331
1D2
  5
145B
331
151C
  5
16D9
331
193
  5
1E8
331
30D
  5
1534
331
E1
  5
E1
331
120
  5
120
331
16B2
  5
18DA
331
11C
  5
11C
331
DD
  5
DD
331
D9
  5
D9
331
118
  5
118
331
16D6
  5
18F7
331
16D2
  5
18F4
331
16CE
  5
18F0
331
191E
  5
16E3
331
16CA
  5
18EE
331
191A
  5
16E5
331
18AD
  5
18A2
331
18EC
  5
19A
331
18E8
  5
196
331
1CE
  5
1457
331
18E4
  5
192
331
1CA
  5
1453
331
16AE
  5
18D6
331
18B
  5
1E3
331
18A1
  5
18B6
331
18E0
  5
18A
331
16AA
  5
18D2
331
187
  5
1DE
331
D5
  5
D5
331
114
  5
114
331
1C2
  5
144F
331
16A6
  5
18CF
331
146C
  5
16D2
331
183
  5
1DA
331
D1
  5
D1
331
110
  5
110
331
1468
  5
16CE
331
201
  5
151E
331
10C
  5
10C
331
108
  5
108
331
C9
  5
C9
331
343
  5
1537
331
1916
  5
16F9
331
1912
  5
18A0
331
190E
  5
18A9
331
190A
  5
18B0
331
18DC
  5
186
331
1BE
  5
144B
331
18D8
  5
182
331
17F
  5
1D6
331
1464
  5
16C8
331
17B
  5
1D2
331
18D4
  5
17E
331
153A
  5
18CC
331
1460
  5
16C4
331
177
  5
1CE
331
18D0
  5
17A
331
C5
  5
C5
331
104
  5
104
331
1B2
  5
1449
331
145C
  5
16C0
331
173
  5
1CA
331
C1
  5
C1
331
100
  5
100
331
1458
  5
16BB
331
1532
  5
18C6
331
1E9
  5
148E
331
1487
  5
16ED
331
BD
  5
BD
331
FC
  5
FC
331
F8
  5
F8
  0
XRECORD
  5
1925
102
{ACAD_REACTORS
330
1923
102
}
330
1923
100
AcDbXrecord
280
     1
 70
     2
  0
XRECORD
  5
1924
102
{ACAD_REACTORS
330
1923
102
}
330
1923
100
AcDbXrecord
280
     1
 40
1.25
  0
XRECORD
  5
1926
102
{ACAD_REACTORS
330
1923
102
}
330
1923
100
AcDbXrecord
280
     1
 40
1.570796326794896
  0
LAYOUT
  5
6E
102
{ACAD_XDICTIONARY
360
195A
102
}
102
{ACAD_REACTORS
330
61
102
}
330
61
100
AcDbPlotSettings
  1

  2
none_device
  4
Letter_(8.50_x_11.00_Inches)
  6

 40
6.349999904632567
 41
6.349999904632567
 42
6.350006103515625
 43
6.350006103515625
 44
215.8999938964844
 45
279.3999938964844
 46
0.0
 47
0.0
 48
0.0
 49
0.0
140
0.0
141
0.0
142
1.0
143
58.79158117780672
 70
 11952
 72
     0
 73
     1
 74
     0
  7

 75
     0
147
0.0170092380569872
148
-4965.276555290069
149
493.5502545748822
100
AcDbLayout
  1
Model
 70
     1
 71
     0
 10
0.0
 20
0.0
 11
12.0
 21
9.0
 12
0.0
 22
0.0
 32
0.0
 14
0.0
 24
0.0
 34
0.0
 15
0.0
 25
0.0
 35
0.0
146
0.0
 13
0.0
 23
0.0
 33
0.0
 16
1.0
 26
0.0
 36
0.0
 17
0.0
 27
1.0
 37
0.0
 76
     0
330
6B
331
8B
1001
ACAD_PSEXT
1000
なし
1000
なし
1000
適切ではありません
1000
新しいプロッタ環境設定名を選択しない限り、レイアウトは印刷されません。
1070
     0
  0
LAYOUT
  5
6A
102
{ACAD_XDICTIONARY
360
1958
102
}
102
{ACAD_REACTORS
330
61
102
}
330
61
100
AcDbPlotSettings
  1

  2
FX DP 205
  4

  6

 40
0.0
 41
0.0
 42
0.0
 43
0.0
 44
0.0
 45
0.0
 46
0.0
 47
0.0
 48
0.0
 49
0.0
140
0.0
141
0.0
142
1.0
143
1.0
 70
   688
 72
     0
 73
     0
 74
     5
  7

 75
    16
147
1.0
148
0.0
149
0.0
100
AcDbLayout
  1
レイアウト1
 70
     1
 71
     1
 10
0.0
 20
0.0
 11
12.0
 21
9.0
 12
0.0
 22
0.0
 32
0.0
 14
1.000000000000000E+20
 24
1.000000000000000E+20
 34
1.000000000000000E+20
 15
-1.000000000000000E+20
 25
-1.000000000000000E+20
 35
-1.000000000000000E+20
146
0.0
 13
0.0
 23
0.0
 33
0.0
 16
1.0
 26
0.0
 36
0.0
 17
0.0
 27
1.0
 37
0.0
 76
     0
330
67
  0
MATERIAL
  5
19
102
{ACAD_XDICTIONARY
360
1A
102
}
102
{ACAD_REACTORS
330
10
102
}
330
10
100
AcDbMaterial
  1
ByBlock
 72
     0
 43
0.0208333333333333
 43
0.0
 43
0.0
 43
0.0
 43
0.0
 43
0.0208333333333333
 43
0.0
 43
0.0
 43
0.0
 43
0.0
 43
1.0
 43
0.0
 43
0.0
 43
0.0
 43
0.0
 43
1.0
 77
     0
 47
0.0208333333333333
 47
0.0
 47
0.0
 47
0.0
 47
0.0
 47
0.0208333333333333
 47
0.0
 47
0.0
 47
0.0
 47
0.0
 47
1.0
 47
0.0
 47
0.0
 47
0.0
 47
0.0
 47
1.0
171
     0
 49
0.0208333333333333
 49
0.0
 49
0.0
 49
0.0
 49
0.0
 49
0.0208333333333333
 49
0.0
 49
0.0
 49
0.0
 49
0.0
 49
1.0
 49
0.0
 49
0.0
 49
0.0
 49
0.0
 49
1.0
175
     0
142
0.0208333333333333
142
0.0
142
0.0
142
0.0
142
0.0
142
0.0208333333333333
142
0.0
142
0.0
142
0.0
142
0.0
142
1.0
142
0.0
142
0.0
142
0.0
142
0.0
142
1.0
179
     0
144
0.0208333333333333
144
0.0
144
0.0
144
0.0
144
0.0
144
0.0208333333333333
144
0.0
144
0.0
144
0.0
144
0.0
144
1.0
144
0.0
144
0.0
144
0.0
144
0.0
144
1.0
147
0.0208333333333333
147
0.0
147
0.0
147
0.0
147
0.0
147
0.0208333333333333
147
0.0
147
0.0
147
0.0
147
0.0
147
1.0
147
0.0
147
0.0
147
0.0
147
0.0
147
1.0
  0
MATERIAL
  5
11
102
{ACAD_XDICTIONARY
360
12
102
}
102
{ACAD_REACTORS
330
10
102
}
330
10
100
AcDbMaterial
  1
ByLayer
 72
     0
 43
0.0208333333333333
 43
0.0
 43
0.0
 43
0.0
 43
0.0
 43
0.0208333333333333
 43
0.0
 43
0.0
 43
0.0
 43
0.0
 43
1.0
 43
0.0
 43
0.0
 43
0.0
 43
0.0
 43
1.0
 77
     0
 47
0.0208333333333333
 47
0.0
 47
0.0
 47
0.0
 47
0.0
 47
0.0208333333333333
 47
0.0
 47
0.0
 47
0.0
 47
0.0
 47
1.0
 47
0.0
 47
0.0
 47
0.0
 47
0.0
 47
1.0
171
     0
 49
0.0208333333333333
 49
0.0
 49
0.0
 49
0.0
 49
0.0
 49
0.0208333333333333
 49
0.0
 49
0.0
 49
0.0
 49
0.0
 49
1.0
 49
0.0
 49
0.0
 49
0.0
 49
0.0
 49
1.0
175
     0
142
0.0208333333333333
142
0.0
142
0.0
142
0.0
142
0.0
142
0.0208333333333333
142
0.0
142
0.0
142
0.0
142
0.0
142
1.0
142
0.0
142
0.0
142
0.0
142
0.0
142
1.0
179
     0
144
0.0208333333333333
144
0.0
144
0.0
144
0.0
144
0.0
144
0.0208333333333333
144
0.0
144
0.0
144
0.0
144
0.0
144
1.0
144
0.0
144
0.0
144
0.0
144
0.0
144
1.0
147
0.0208333333333333
147
0.0
147
0.0
147
0.0
147
0.0
147
0.0208333333333333
147
0.0
147
0.0
147
0.0
147
0.0
147
1.0
147
0.0
147
0.0
147
0.0
147
0.0
147
1.0
  0
MATERIAL
  5
21
102
{ACAD_XDICTIONARY
360
22
102
}
102
{ACAD_REACTORS
330
10
102
}
330
10
100
AcDbMaterial
  1
Global
 72
     0
 43
0.0208333333333333
 43
0.0
 43
0.0
 43
0.0
 43
0.0
 43
0.0208333333333333
 43
0.0
 43
0.0
 43
0.0
 43
0.0
 43
1.0
 43
0.0
 43
0.0
 43
0.0
 43
0.0
 43
1.0
 77
     0
 47
0.0208333333333333
 47
0.0
 47
0.0
 47
0.0
 47
0.0
 47
0.0208333333333333
 47
0.0
 47
0.0
 47
0.0
 47
0.0
 47
1.0
 47
0.0
 47
0.0
 47
0.0
 47
0.0
 47
1.0
171
     0
 49
0.0208333333333333
 49
0.0
 49
0.0
 49
0.0
 49
0.0
 49
0.0208333333333333
 49
0.0
 49
0.0
 49
0.0
 49
0.0
 49
1.0
 49
0.0
 49
0.0
 49
0.0
 49
0.0
 49
1.0
175
     0
142
0.0208333333333333
142
0.0
142
0.0
142
0.0
142
0.0
142
0.0208333333333333
142
0.0
142
0.0
142
0.0
142
0.0
142
1.0
142
0.0
142
0.0
142
0.0
142
0.0
142
1.0
179
     0
144
0.0208333333333333
144
0.0
144
0.0
144
0.0
144
0.0
144
0.0208333333333333
144
0.0
144
0.0
144
0.0
144
0.0
144
1.0
144
0.0
144
0.0
144
0.0
144
0.0
144
1.0
147
0.0208333333333333
147
0.0
147
0.0
147
0.0
147
0.0
147
0.0208333333333333
147
0.0
147
0.0
147
0.0
147
0.0
147
1.0
147
0.0
147
0.0
147
0.0
147
0.0
147
1.0
  0
MLEADERSTYLE
  5
66
102
{ACAD_REACTORS
330
65
102
}
330
65
100
AcDbMLeaderStyle
170
     2
171
     1
172
     0
 90
        2
 40
0.0
 41
0.0
173
     1
 91
-1056964608
340
5A
 92
       -2
290
     1
 42
0.09
291
     1
 43
0.36
  3
Standard
 44
0.18
300

342
55
174
     1
178
     6
175
     1
176
     0
 93
-1056964608
 45
0.18
292
     0
297
     0
 46
0.18
 94
-1056964608
 47
1.0
 49
1.0
140
1.0
293
     1
141
0.0
294
     1
177
     0
142
1.0
295
     0
296
     0
143
0.125
1001
ACAD_MLEADERVER
1070
     2
  0
MLINESTYLE
  5
5F
102
{ACAD_REACTORS
330
5E
102
}
330
5E
100
AcDbMlineStyle
  2
STANDARD
 70
     0
  3

 62
   256
 51
90.0
 52
90.0
 71
     2
 49
0.5
 62
   256
  6
BYLAYER
 49
-0.5
 62
   256
  6
BYLAYER
  0
ACDBPLACEHOLDER
  5
F
102
{ACAD_REACTORS
330
E
102
}
330
E
  0
SCALE
  5
43
102
{ACAD_REACTORS
330
42
102
}
330
42
100
AcDbScale
 70
     0
300
1:1
140
1.0
141
1.0
290
     1
  0
SCALE
  5
44
102
{ACAD_REACTORS
330
42
102
}
330
42
100
AcDbScale
 70
     0
300
1/128" = 1'-0"
140
0.0078125
141
12.0
290
     0
  0
SCALE
  5
45
102
{ACAD_REACTORS
330
42
102
}
330
42
100
AcDbScale
 70
     0
300
1/64" = 1'-0"
140
0.015625
141
12.0
290
     0
  0
SCALE
  5
46
102
{ACAD_REACTORS
330
42
102
}
330
42
100
AcDbScale
 70
     0
300
1/32" = 1'-0"
140
0.03125
141
12.0
290
     0
  0
SCALE
  5
47
102
{ACAD_REACTORS
330
42
102
}
330
42
100
AcDbScale
 70
     0
300
1/16" = 1'-0"
140
0.0625
141
12.0
290
     0
  0
SCALE
  5
48
102
{ACAD_REACTORS
330
42
102
}
330
42
100
AcDbScale
 70
     0
300
3/32" = 1'-0"
140
0.09375
141
12.0
290
     0
  0
SCALE
  5
49
102
{ACAD_REACTORS
330
42
102
}
330
42
100
AcDbScale
 70
     0
300
1/8" = 1'-0"
140
0.125
141
12.0
290
     0
  0
SCALE
  5
4A
102
{ACAD_REACTORS
330
42
102
}
330
42
100
AcDbScale
 70
     0
300
3/16" = 1'-0"
140
0.1875
141
12.0
290
     0
  0
SCALE
  5
4B
102
{ACAD_REACTORS
330
42
102
}
330
42
100
AcDbScale
 70
     0
300
1/4" = 1'-0"
140
0.25
141
12.0
290
     0
  0
SCALE
  5
4C
102
{ACAD_REACTORS
330
42
102
}
330
42
100
AcDbScale
 70
     0
300
3/8" = 1'-0"
140
0.375
141
12.0
290
     0
  0
SCALE
  5
4D
102
{ACAD_REACTORS
330
42
102
}
330
42
100
AcDbScale
 70
     0
300
1/2" = 1'-0"
140
0.5
141
12.0
290
     0
  0
SCALE
  5
4E
102
{ACAD_REACTORS
330
42
102
}
330
42
100
AcDbScale
 70
     0
300
3/4" = 1'-0"
140
0.75
141
12.0
290
     0
  0
SCALE
  5
4F
102
{ACAD_REACTORS
330
42
102
}
330
42
100
AcDbScale
 70
     0
300
1" = 1'-0"
140
1.0
141
12.0
290
     0
  0
SCALE
  5
50
102
{ACAD_REACTORS
330
42
102
}
330
42
100
AcDbScale
 70
     0
300
1-1/2" = 1'-0"
140
1.5
141
12.0
290
     0
  0
SCALE
  5
51
102
{ACAD_REACTORS
330
42
102
}
330
42
100
AcDbScale
 70
     0
300
3" = 1'-0"
140
3.0
141
12.0
290
     0
  0
SCALE
  5
52
102
{ACAD_REACTORS
330
42
102
}
330
42
100
AcDbScale
 70
     0
300
6" = 1'-0"
140
6.0
141
12.0
290
     0
  0
SCALE
  5
53
102
{ACAD_REACTORS
330
42
102
}
330
42
100
AcDbScale
 70
     0
300
1'-0" = 1'-0"
140
12.0
141
12.0
290
     0
  0
TABLESTYLE
  5
64
102
{ACAD_XDICTIONARY
360
5AB
102
}
102
{ACAD_REACTORS
330
63
102
}
330
63
100
AcDbTableStyle
  3
Standard
 70
     0
 71
     0
 40
0.06
 41
0.06
280
     0
281
     0
  7
STANDARD
140
0.18
170
     2
 62
     0
 63
     7
283
     0
274
    -2
284
     1
 64
     0
275
    -2
285
     1
 65
     0
276
    -2
286
     1
 66
     0
277
    -2
287
     1
 67
     0
278
    -2
288
     1
 68
     0
279
    -2
289
     1
 69
     0
  7
STANDARD
140
0.25
170
     5
 62
     0
 63
     7
283
     0
274
    -2
284
     1
 64
     0
275
    -2
285
     1
 65
     0
276
    -2
286
     1
 66
     0
277
    -2
287
     1
 67
     0
278
    -2
288
     1
 68
     0
279
    -2
289
     1
 69
     0
  7
STANDARD
140
0.18
170
     5
 62
     0
 63
     7
283
     0
274
    -2
284
     1
 64
     0
275
    -2
285
     1
 65
     0
276
    -2
286
     1
 66
     0
277
    -2
287
     1
 67
     0
278
    -2
288
     1
 68
     0
279
    -2
289
     1
 69
     0
  0
VISUALSTYLE
  5
2F
102
{ACAD_XDICTIONARY
360
1931
102
}
102
{ACAD_REACTORS
330
29
102
}
330
29
100
AcDbVisualStyle
  2

 70
     4
 71
     0
 72
     2
 73
     0
 90
        0
 40
-0.6
 41
-30.0
 62
     5
 63
     7
 74
     1
 91
        4
 64
     7
 65
   257
 75
     1
175
     1
 42
1.0
 92
        0
 66
   257
 43
1.0
 76
     1
 77
     6
 78
     2
 67
     7
 79
     5
170
     0
171
     0
290
     0
174
     0
 93
        1
 44
0.0
173
     0
291
     0
 45
0.0
1001
ACAD
1000
AcDbSavedByObjectVersion
1070
     0
  0
VISUALSTYLE
  5
3EA
102
{ACAD_XDICTIONARY
360
195C
102
}
102
{ACAD_REACTORS
330
29
102
}
330
29
100
AcDbVisualStyle
  2

 70
     5
 71
     0
 72
     2
 73
     1
 90
        0
 40
-0.6
 41
-30.0
 62
     5
 63
     7
 74
     1
 91
        4
 64
     7
 65
   257
 75
     1
175
     1
 42
1.0
 92
        0
 66
   257
 43
1.0
 76
     1
 77
     6
 78
     2
 67
     7
 79
     5
170
     0
171
     0
290
     0
174
     0
 93
        1
 44
0.0
173
     0
291
     0
 45
0.0
1001
ACAD
1000
AcDbSavedByObjectVersion
1070
     0
  0
VISUALSTYLE
  5
2E
102
{ACAD_XDICTIONARY
360
192F
102
}
102
{ACAD_REACTORS
330
29
102
}
330
29
100
AcDbVisualStyle
  2

 70
     7
 71
     1
 72
     0
 73
     1
 90
        0
 40
-0.6
 41
-30.0
 62
     5
 63
     7
 74
     0
 91
        4
 64
     7
 65
   257
 75
     1
175
     1
 42
1.0
 92
        8
 66
     7
 43
1.0
 76
     1
 77
     6
 78
     2
 67
     7
 79
     5
170
     0
171
     0
290
     0
174
     0
 93
        1
 44
0.0
173
     0
291
     1
 45
0.0
1001
ACAD
1000
AcDbSavedByObjectVersion
1070
     0
  0
VISUALSTYLE
  5
35
102
{ACAD_XDICTIONARY
360
193D
102
}
102
{ACAD_REACTORS
330
29
102
}
330
29
100
AcDbVisualStyle
  2

 70
    12
 71
     2
 72
     2
 73
     0
 90
        0
 40
-0.6
 41
-30.0
 62
     5
 63
     7
 74
     1
 91
        4
 64
     7
 65
   257
 75
     1
175
     1
 42
1.0
 92
        8
 66
     7
 43
1.0
 76
     1
 77
     6
 78
     2
 67
     7
 79
     5
170
     0
171
     0
290
     0
174
     0
 93
        1
 44
50.0
173
     0
291
     1
 45
0.0
1001
ACAD
1000
AcDbSavedByObjectVersion
1070
     0
  0
VISUALSTYLE
  5
39
102
{ACAD_XDICTIONARY
360
1945
102
}
102
{ACAD_REACTORS
330
29
102
}
330
29
100
AcDbVisualStyle
  2

 70
    16
 71
     2
 72
     2
 73
     3
 90
        0
 40
-0.6
 41
-30.0
 62
     5
 63
     8
 74
     1
 91
        4
 64
     7
 65
   257
 75
     1
175
     1
 42
1.0
 92
        8
 66
     8
 43
1.0
 76
     1
 77
     6
 78
     2
 67
     7
 79
     5
170
     0
171
     0
290
     0
174
     0
 93
        1
 44
0.0
173
     0
291
     1
 45
0.0
1001
ACAD
1000
AcDbSavedByObjectVersion
1070
     0
  0
VISUALSTYLE
  5
32
102
{ACAD_XDICTIONARY
360
1937
102
}
102
{ACAD_REACTORS
330
29
102
}
330
29
100
AcDbVisualStyle
  2

 70
     9
 71
     3
 72
     2
 73
     0
 90
        0
 40
-0.6
 41
-30.0
 62
     5
 63
     7
 74
     2
 91
        2
 64
     7
 65
   257
 75
     1
175
     1
 42
179.0
 92
        8
 66
     7
 43
1.0
 76
     1
 77
     6
 78
     2
 67
     7
 79
     3
170
     0
171
     0
290
     0
174
     0
 93
        1
 44
0.0
173
     0
291
     0
 45
0.0
1001
ACAD
1000
AcDbSavedByObjectVersion
1070
     0
  0
VISUALSTYLE
  5
34
102
{ACAD_XDICTIONARY
360
193B
102
}
102
{ACAD_REACTORS
330
29
102
}
330
29
100
AcDbVisualStyle
  2

 70
    11
 71
     2
 72
     2
 73
     0
 90
        0
 40
-0.6
 41
-30.0
 62
     5
 63
     7
 74
     1
 91
        4
 64
     7
 65
   257
 75
     1
175
     1
 42
1.0
 92
        8
 66
     7
 43
1.0
 76
     1
 77
     6
 78
     2
 67
     7
 79
     5
170
     0
171
     0
290
     0
174
     0
 93
        1
 44
-50.0
173
     0
291
     1
 45
0.0
1001
ACAD
1000
AcDbSavedByObjectVersion
1070
     0
  0
VISUALSTYLE
  5
41
102
{ACAD_XDICTIONARY
360
1955
102
}
102
{ACAD_REACTORS
330
29
102
}
330
29
100
AcDbVisualStyle
  2

 70
    22
 71
     2
 72
     2
 73
     0
 90
        0
 40
-0.6
 41
-30.0
 62
     5
 63
     7
 74
     1
 91
        4
 64
     7
 65
   257
 75
     1
175
     1
 42
1.0
 92
        8
 66
     7
 43
1.0
 76
     1
 77
     6
 78
     2
 67
     7
 79
     5
170
     0
171
     0
290
     0
174
     0
 93
        1
 44
0.0
173
     0
291
     1
 45
0.0
1001
ACAD
1000
AcDbSavedByObjectVersion
1070
     0
  0
VISUALSTYLE
  5
38
102
{ACAD_XDICTIONARY
360
1943
102
}
102
{ACAD_REACTORS
330
29
102
}
330
29
100
AcDbVisualStyle
  2

 70
    15
 71
     2
 72
     2
 73
     0
 90
        0
 40
-0.6
 41
-30.0
 62
     5
 63
     7
 74
     1
 91
        4
 64
     7
 65
   257
 75
     1
175
     1
 42
1.0
 92
        8
 66
     7
 43
1.0
 76
     1
 77
     6
 78
     2
 67
     7
 79
     5
170
     0
171
     0
290
     0
174
     0
 93
        1
 44
0.0
173
     0
291
     1
 45
0.0
1001
ACAD
1000
AcDbSavedByObjectVersion
1070
     0
  0
VISUALSTYLE
  5
2A
102
{ACAD_XDICTIONARY
360
1927
102
}
102
{ACAD_REACTORS
330
29
102
}
330
29
100
AcDbVisualStyle
  2

 70
     0
 71
     2
 72
     1
 73
     1
 90
        2
 40
-0.6
 41
30.0
 62
     5
 63
     7
 74
     0
 91
        0
 64
     7
 65
   257
 75
     1
175
     1
 42
1.0
 92
        8
 66
     7
 43
1.0
 76
     1
 77
     6
 78
     2
 67
     7
 79
     5
170
     0
171
     0
290
     0
174
     0
 93
       13
 44
0.0
173
     0
291
     1
 45
0.0
1001
ACAD
1000
AcDbSavedByObjectVersion
1070
     0
  0
VISUALSTYLE
  5
2B
102
{ACAD_XDICTIONARY
360
1929
102
}
102
{ACAD_REACTORS
330
29
102
}
330
29
100
AcDbVisualStyle
  2

 70
     1
 71
     2
 72
     1
 73
     1
 90
        2
 40
-0.6
 41
30.0
 62
     5
 63
     7
 74
     1
 91
        0
 64
     7
 65
   257
 75
     1
175
     1
 42
1.0
 92
        0
 66
   257
 43
1.0
 76
     1
 77
     6
 78
     2
 67
     7
 79
     5
170
     0
171
     0
290
     0
174
     0
 93
       13
 44
0.0
173
     0
291
     1
 45
0.0
1001
ACAD
1000
AcDbSavedByObjectVersion
1070
     0
  0
VISUALSTYLE
  5
2C
102
{ACAD_XDICTIONARY
360
192B
102
}
102
{ACAD_REACTORS
330
29
102
}
330
29
100
AcDbVisualStyle
  2

 70
     2
 71
     2
 72
     2
 73
     1
 90
        2
 40
-0.6
 41
30.0
 62
     5
 63
     7
 74
     0
 91
        0
 64
     7
 65
   257
 75
     1
175
     1
 42
1.0
 92
        0
 66
     7
 43
1.0
 76
     1
 77
     6
 78
     2
 67
     7
 79
     5
170
     0
171
     0
290
     0
174
     0
 93
       13
 44
0.0
173
     0
291
     1
 45
0.0
1001
ACAD
1000
AcDbSavedByObjectVersion
1070
     0
  0
VISUALSTYLE
  5
2D
102
{ACAD_XDICTIONARY
360
192D
102
}
102
{ACAD_REACTORS
330
29
102
}
330
29
100
AcDbVisualStyle
  2

 70
     3
 71
     2
 72
     2
 73
     1
 90
        2
 40
-0.6
 41
30.0
 62
     5
 63
     7
 74
     1
 91
        0
 64
     7
 65
   257
 75
     1
175
     1
 42
1.0
 92
        0
 66
   257
 43
1.0
 76
     1
 77
     6
 78
     2
 67
     7
 79
     5
170
     0
171
     0
290
     0
174
     0
 93
       13
 44
0.0
173
     0
291
     1
 45
0.0
1001
ACAD
1000
AcDbSavedByObjectVersion
1070
     0
  0
VISUALSTYLE
  5
31
102
{ACAD_XDICTIONARY
360
1935
102
}
102
{ACAD_REACTORS
330
29
102
}
330
29
100
AcDbVisualStyle
  2

 70
     6
 71
     1
 72
     2
 73
     2
 90
        0
 40
-0.6
 41
-30.0
 62
     5
 63
     7
 74
     2
 91
        2
 64
     7
 65
   257
 75
     2
175
     1
 42
40.0
 92
        0
 66
   257
 43
1.0
 76
     1
 77
     6
 78
     2
 67
     7
 79
     3
170
     0
171
     0
290
     0
174
     0
 93
        1
 44
0.0
173
     0
291
     0
 45
0.0
1001
ACAD
1000
AcDbSavedByObjectVersion
1070
     0
  0
VISUALSTYLE
  5
3F
102
{ACAD_XDICTIONARY
360
1951
102
}
102
{ACAD_REACTORS
330
29
102
}
330
29
100
AcDbVisualStyle
  2

 70
    20
 71
     2
 72
     2
 73
     0
 90
        0
 40
-0.6
 41
-30.0
 62
     5
 63
     7
 74
     1
 91
        4
 64
     7
 65
   257
 75
     1
175
     1
 42
1.0
 92
       10
 66
     7
 43
1.0
 76
     1
 77
     6
 78
     2
 67
     7
 79
     5
170
     0
171
     0
290
     0
174
     0
 93
        1
 44
0.0
173
     0
291
     1
 45
0.0
1001
ACAD
1000
AcDbSavedByObjectVersion
1070
     0
  0
VISUALSTYLE
  5
37
102
{ACAD_XDICTIONARY
360
1941
102
}
102
{ACAD_REACTORS
330
29
102
}
330
29
100
AcDbVisualStyle
  2

 70
    14
 71
     2
 72
     2
 73
     0
 90
        0
 40
-0.6
 41
-30.0
 62
     5
 63
     7
 74
     1
 91
        4
 64
     7
 65
   257
 75
     7
175
     7
 42
1.0
 92
        8
 66
     7
 43
1.0
 76
     1
 77
     6
 78
     2
 67
     7
 79
     5
170
     0
171
     0
290
     0
174
     0
 93
        1
 44
0.0
173
     0
291
     1
 45
0.0
1001
ACAD
1000
AcDbSavedByObjectVersion
1070
     0
  0
VISUALSTYLE
  5
40
102
{ACAD_XDICTIONARY
360
1953
102
}
102
{ACAD_REACTORS
330
29
102
}
330
29
100
AcDbVisualStyle
  2

 70
    21
 71
     2
 72
     2
 73
     0
 90
        0
 40
-0.6
 41
-30.0
 62
     5
 63
     7
 74
     1
 91
        4
 64
     7
 65
   257
 75
     1
175
     1
 42
1.0
 92
        9
 66
     7
 43
1.0
 76
     1
 77
     6
 78
     2
 67
     7
 79
     5
170
     0
171
     0
290
     0
174
     0
 93
        1
 44
0.0
173
     0
291
     1
 45
0.0
1001
ACAD
1000
AcDbSavedByObjectVersion
1070
     0
  0
VISUALSTYLE
  5
33
102
{ACAD_XDICTIONARY
360
1939
102
}
102
{ACAD_REACTORS
330
29
102
}
330
29
100
AcDbVisualStyle
  2

 70
     8
 71
     2
 72
     3
 73
     0
 90
        2
 40
-0.6
 41
30.0
 62
     5
 63
     7
 74
     0
 91
        0
 64
     7
 65
   257
 75
     1
175
     1
 42
1.0
 92
        8
 66
   257
 43
1.0
 76
     1
 77
     6
 78
     2
 67
     7
 79
     3
170
     0
171
     0
290
     0
174
     0
 93
       13
 44
0.0
173
     0
291
     0
 45
0.0
1001
ACAD
1000
AcDbSavedByObjectVersion
1070
     0
  0
VISUALSTYLE
  5
3E
102
{ACAD_XDICTIONARY
360
194F
102
}
102
{ACAD_REACTORS
330
29
102
}
330
29
100
AcDbVisualStyle
  2

 70
    27
 71
     2
 72
     2
 73
     1
 90
        2
 40
-0.6
 41
30.0
 62
     5
 63
     7
 74
     0
 91
        4
 64
     7
 65
   257
 75
     1
175
     1
 42
1.0
 92
        8
 66
   257
 43
1.0
 76
     1
 77
     6
 78
     2
 67
     8
 79
     3
170
     0
171
     0
290
     0
174
     0
 93
        5
 44
0.0
173
     0
291
     0
 45
0.0
1001
ACAD
1000
AcDbSavedByObjectVersion
1070
     0
  0
VISUALSTYLE
  5
3D
102
{ACAD_XDICTIONARY
360
194D
102
}
102
{ACAD_REACTORS
330
29
102
}
330
29
100
AcDbVisualStyle
  2

 70
    26
 71
     2
 72
     2
 73
     1
 90
        2
 40
-0.6
 41
30.0
 62
     5
 63
     7
 74
     1
 91
       10
 64
     7
 65
   257
 75
     2
175
     1
 42
1.0
 92
        8
 66
   257
 43
1.0
 76
     1
 77
     6
 78
     2
 67
     7
 79
     3
170
     0
171
     0
290
     0
174
     0
 93
        5
 44
0.0
173
     0
291
     0
 45
0.0
1001
ACAD
1000
AcDbSavedByObjectVersion
1070
     0
  0
VISUALSTYLE
  5
3A
102
{ACAD_XDICTIONARY
360
1947
102
}
102
{ACAD_REACTORS
330
29
102
}
330
29
100
AcDbVisualStyle
  2

 70
    23
 71
     2
 72
     2
 73
     3
 90
        0
 40
-0.6
 41
-30.0
 62
     5
 63
     7
 74
     2
 91
        2
 64
     7
 65
     7
 75
     1
175
     1
 42
40.0
 92
        8
 66
     7
 43
1.0
 76
     1
 77
     6
 78
     2
 67
     7
 79
     3
170
     0
171
     0
290
     0
174
     0
 93
        1
 44
0.0
173
     0
291
     0
 45
0.0
1001
ACAD
1000
AcDbSavedByObjectVersion
1070
     0
  0
VISUALSTYLE
  5
3B
102
{ACAD_XDICTIONARY
360
1949
102
}
102
{ACAD_REACTORS
330
29
102
}
330
29
100
AcDbVisualStyle
  2

 70
    24
 71
     1
 72
     2
 73
     2
 90
        0
 40
-0.6
 41
-30.0
 62
     5
 63
     7
 74
     2
 91
        2
 64
     7
 65
     7
 75
     1
175
     1
 42
40.0
 92
       11
 66
     7
 43
1.0
 76
     1
 77
     6
 78
     2
 67
     7
 79
     6
170
     0
171
     0
290
     0
174
     0
 93
        1
 44
0.0
173
     0
291
     0
 45
0.0
1001
ACAD
1000
AcDbSavedByObjectVersion
1070
     0
  0
VISUALSTYLE
  5
36
102
{ACAD_XDICTIONARY
360
193F
102
}
102
{ACAD_REACTORS
330
29
102
}
330
29
100
AcDbVisualStyle
  2

 70
    13
 71
     2
 72
     2
 73
     0
 90
        0
 40
-0.6
 41
-30.0
 62
     5
 63
     7
 74
     1
 91
        4
 64
     7
 65
   257
 75
     1
175
     1
 42
1.0
 92
       12
 66
     7
 43
1.0
 76
     1
 77
     6
 78
     2
 67
     7
 79
     5
170
     0
171
     0
290
     0
174
     0
 93
        1
 44
0.0
173
     0
291
     1
 45
0.0
1001
ACAD
1000
AcDbSavedByObjectVersion
1070
     0
  0
VISUALSTYLE
  5
30
102
{ACAD_XDICTIONARY
360
1933
102
}
102
{ACAD_REACTORS
330
29
102
}
330
29
100
AcDbVisualStyle
  2

 70
     5
 71
     0
 72
     2
 73
     0
 90
        0
 40
-0.6
 41
-30.0
 62
     5
 63
     7
 74
     1
 91
        4
 64
     7
 65
   257
 75
     1
175
     1
 42
1.0
 92
        0
 66
   257
 43
1.0
 76
     1
 77
     6
 78
     2
 67
     7
 79
     3
170
     0
171
     0
290
     0
174
     0
 93
        1
 44
0.0
173
     0
291
     0
 45
0.0
1001
ACAD
1000
AcDbSavedByObjectVersion
1070
     0
  0
VISUALSTYLE
  5
3C
102
{ACAD_XDICTIONARY
360
194B
102
}
102
{ACAD_REACTORS
330
29
102
}
330
29
100
AcDbVisualStyle
  2

 70
    25
 71
     2
 72
     2
 73
     1
 90
        1
 40
0.5
 41
-30.0
 62
     5
 63
     7
 74
     1
 91
        0
 64
     7
 65
   257
 75
     1
175
     1
 42
1.0
 92
        8
 66
     7
 43
1.0
 76
     1
 77
     6
 78
     2
 67
     7
 79
     3
170
     0
171
     0
290
     0
174
     0
 93
       13
 44
0.0
173
     0
291
     0
 45
0.0
1001
ACAD
1000
AcDbSavedByObjectVersion
1070
     0
  0
DICTIONARYVAR
  5
54B
102
{ACAD_REACTORS
330
548
102
}
330
548
100
DictionaryVariables
280
     0
  1
1:1
  0
DICTIONARYVAR
  5
54A
102
{ACAD_REACTORS
330
548
102
}
330
548
100
DictionaryVariables
280
     0
  1
STANDARD
  0
DICTIONARYVAR
  5
549
102
{ACAD_REACTORS
330
548
102
}
330
548
100
DictionaryVariables
280
     0
  1
STANDARD
  0
DICTIONARYVAR
  5
54E
102
{ACAD_REACTORS
330
548
102
}
330
548
100
DictionaryVariables
280
     0
  1
1
  0
DICTIONARYVAR
  5
54D
102
{ACAD_REACTORS
330
548
102
}
330
548
100
DictionaryVariables
280
     0
  1
0
  0
DICTIONARYVAR
  5
54C
102
{ACAD_REACTORS
330
548
102
}
330
548
100
DictionaryVariables
280
     0
  1
127
  0
DICTIONARYVAR
  5
1861
102
{ACAD_REACTORS
330
548
102
}
330
548
100
DictionaryVariables
280
     0
  1
2
  0
DICTIONARY
  5
195A
330
6E
100
AcDbDictionary
280
     1
281
     1
  3
ACAD_XREC_ROUNDTRIP
360
195B
  0
DICTIONARY
  5
1958
330
6A
100
AcDbDictionary
280
     1
281
     1
  3
ACAD_XREC_ROUNDTRIP
360
1959
  0
DICTIONARY
  5
1A
330
19
100
AcDbDictionary
280
     1
281
     1
  3
ACAD_XREC_ROUNDTRIP
360
5B4
  3
BUMPTILE
360
1C
  3
DIFFUSETILE
360
1B
  3
OPACITYTILE
360
1F
  3
REFLECTIONTILE
360
1E
  3
REFRACTIONTILE
360
20
  3
SPECULARTILE
360
1D
  0
DICTIONARY
  5
12
330
11
100
AcDbDictionary
280
     1
281
     1
  3
ACAD_XREC_ROUNDTRIP
360
5B3
  3
BUMPTILE
360
14
  3
DIFFUSETILE
360
13
  3
OPACITYTILE
360
17
  3
REFLECTIONTILE
360
16
  3
REFRACTIONTILE
360
18
  3
SPECULARTILE
360
15
  0
DICTIONARY
  5
22
330
21
100
AcDbDictionary
280
     1
281
     1
  3
ACAD_XREC_ROUNDTRIP
360
5B5
  3
BUMPTILE
360
24
  3
DIFFUSETILE
360
23
  3
OPACITYTILE
360
27
  3
REFLECTIONTILE
360
26
  3
REFRACTIONTILE
360
28
  3
SPECULARTILE
360
25
  0
DICTIONARY
  5
5AB
330
64
100
AcDbDictionary
280
     1
281
     1
  3
ACAD_ROUNDTRIP_2008_TABLESTYLE_CELLSTYLEMAP
360
1920
  3
ACAD_XREC_ROUNDTRIP
360
1957
  0
DICTIONARY
  5
1931
330
2F
100
AcDbDictionary
280
     1
281
     1
  3
ACAD_XREC_ROUNDTRIP
360
1932
  0
DICTIONARY
  5
195C
330
3EA
100
AcDbDictionary
280
     1
281
     1
  3
ACAD_XREC_ROUNDTRIP
360
195D
  0
DICTIONARY
  5
192F
330
2E
100
AcDbDictionary
280
     1
281
     1
  3
ACAD_XREC_ROUNDTRIP
360
1930
  0
DICTIONARY
  5
193D
330
35
100
AcDbDictionary
280
     1
281
     1
  3
ACAD_XREC_ROUNDTRIP
360
193E
  0
DICTIONARY
  5
1945
330
39
100
AcDbDictionary
280
     1
281
     1
  3
ACAD_XREC_ROUNDTRIP
360
1946
  0
DICTIONARY
  5
1937
330
32
100
AcDbDictionary
280
     1
281
     1
  3
ACAD_XREC_ROUNDTRIP
360
1938
  0
DICTIONARY
  5
193B
330
34
100
AcDbDictionary
280
     1
281
     1
  3
ACAD_XREC_ROUNDTRIP
360
193C
  0
DICTIONARY
  5
1955
330
41
100
AcDbDictionary
280
     1
281
     1
  3
ACAD_XREC_ROUNDTRIP
360
1956
  0
DICTIONARY
  5
1943
330
38
100
AcDbDictionary
280
     1
281
     1
  3
ACAD_XREC_ROUNDTRIP
360
1944
  0
DICTIONARY
  5
1927
330
2A
100
AcDbDictionary
280
     1
281
     1
  3
ACAD_XREC_ROUNDTRIP
360
1928
  0
DICTIONARY
  5
1929
330
2B
100
AcDbDictionary
280
     1
281
     1
  3
ACAD_XREC_ROUNDTRIP
360
192A
  0
DICTIONARY
  5
192B
330
2C
100
AcDbDictionary
280
     1
281
     1
  3
ACAD_XREC_ROUNDTRIP
360
192C
  0
DICTIONARY
  5
192D
330
2D
100
AcDbDictionary
280
     1
281
     1
  3
ACAD_XREC_ROUNDTRIP
360
192E
  0
DICTIONARY
  5
1935
330
31
100
AcDbDictionary
280
     1
281
     1
  3
ACAD_XREC_ROUNDTRIP
360
1936
  0
DICTIONARY
  5
1951
330
3F
100
AcDbDictionary
280
     1
281
     1
  3
ACAD_XREC_ROUNDTRIP
360
1952
  0
DICTIONARY
  5
1941
330
37
100
AcDbDictionary
280
     1
281
     1
  3
ACAD_XREC_ROUNDTRIP
360
1942
  0
DICTIONARY
  5
1953
330
40
100
AcDbDictionary
280
     1
281
     1
  3
ACAD_XREC_ROUNDTRIP
360
1954
  0
DICTIONARY
  5
1939
330
33
100
AcDbDictionary
280
     1
281
     1
  3
ACAD_XREC_ROUNDTRIP
360
193A
  0
DICTIONARY
  5
194F
330
3E
100
AcDbDictionary
280
     1
281
     1
  3
ACAD_XREC_ROUNDTRIP
360
1950
  0
DICTIONARY
  5
194D
330
3D
100
AcDbDictionary
280
     1
281
     1
  3
ACAD_XREC_ROUNDTRIP
360
194E
  0
DICTIONARY
  5
1947
330
3A
100
AcDbDictionary
280
     1
281
     1
  3
ACAD_XREC_ROUNDTRIP
360
1948
  0
DICTIONARY
  5
1949
330
3B
100
AcDbDictionary
280
     1
281
     1
  3
ACAD_XREC_ROUNDTRIP
360
194A
  0
DICTIONARY
  5
193F
330
36
100
AcDbDictionary
280
     1
281
     1
  3
ACAD_XREC_ROUNDTRIP
360
1940
  0
DICTIONARY
  5
1933
330
30
100
AcDbDictionary
280
     1
281
     1
  3
ACAD_XREC_ROUNDTRIP
360
1934
  0
DICTIONARY
  5
194B
330
3C
100
AcDbDictionary
280
     1
281
     1
  3
ACAD_XREC_ROUNDTRIP
360
194C
  0
XRECORD
  5
195B
102
{ACAD_REACTORS
330
195A
102
}
330
195A
100
AcDbXrecord
280
     1
102
SHADEPLOT
 70
     0
102
SHADEPLOTRESLEVEL
 70
     2
102
SHADEPLOTCUSTOMDPI
 70
   300
  0
XRECORD
  5
1959
102
{ACAD_REACTORS
330
1958
102
}
330
1958
100
AcDbXrecord
280
     1
102
SHADEPLOT
 70
     0
102
SHADEPLOTRESLEVEL
 70
     2
102
SHADEPLOTCUSTOMDPI
 70
   300
  0
XRECORD
  5
5B4
102
{ACAD_REACTORS
330
1A
102
}
330
1A
100
AcDbXrecord
280
     1
102
MATERIAL
148
0.0
149
0.0
149
0.0
 93
        0
 94
      127
282
     0
 72
     0
 77
     0
171
     0
175
     0
179
     0
273
     0
  0
XRECORD
  5
1C
102
{ACAD_REACTORS
330
1A
102
}
330
1A
100
AcDbXrecord
280
     1
270
     1
271
     1
  0
XRECORD
  5
1B
102
{ACAD_REACTORS
330
1A
102
}
330
1A
100
AcDbXrecord
280
     1
270
     1
271
     1
  0
XRECORD
  5
1F
102
{ACAD_REACTORS
330
1A
102
}
330
1A
100
AcDbXrecord
280
     1
270
     1
271
     1
  0
XRECORD
  5
1E
102
{ACAD_REACTORS
330
1A
102
}
330
1A
100
AcDbXrecord
280
     1
270
     1
271
     1
  0
XRECORD
  5
20
102
{ACAD_REACTORS
330
1A
102
}
330
1A
100
AcDbXrecord
280
     1
270
     1
271
     1
  0
XRECORD
  5
1D
102
{ACAD_REACTORS
330
1A
102
}
330
1A
100
AcDbXrecord
280
     1
270
     1
271
     1
  0
XRECORD
  5
5B3
102
{ACAD_REACTORS
330
12
102
}
330
12
100
AcDbXrecord
280
     1
102
MATERIAL
148
0.0
149
0.0
149
0.0
 93
        0
 94
      127
282
     0
 72
     0
 77
     0
171
     0
175
     0
179
     0
273
     0
  0
XRECORD
  5
14
102
{ACAD_REACTORS
330
12
102
}
330
12
100
AcDbXrecord
280
     1
270
     1
271
     1
  0
XRECORD
  5
13
102
{ACAD_REACTORS
330
12
102
}
330
12
100
AcDbXrecord
280
     1
270
     1
271
     1
  0
XRECORD
  5
17
102
{ACAD_REACTORS
330
12
102
}
330
12
100
AcDbXrecord
280
     1
270
     1
271
     1
  0
XRECORD
  5
16
102
{ACAD_REACTORS
330
12
102
}
330
12
100
AcDbXrecord
280
     1
270
     1
271
     1
  0
XRECORD
  5
18
102
{ACAD_REACTORS
330
12
102
}
330
12
100
AcDbXrecord
280
     1
270
     1
271
     1
  0
XRECORD
  5
15
102
{ACAD_REACTORS
330
12
102
}
330
12
100
AcDbXrecord
280
     1
270
     1
271
     1
  0
XRECORD
  5
5B5
102
{ACAD_REACTORS
330
22
102
}
330
22
100
AcDbXrecord
280
     1
102
MATERIAL
148
0.0
149
0.0
149
0.0
 93
        0
 94
      127
282
     0
 72
     0
 77
     0
171
     0
175
     0
179
     0
273
     0
  0
XRECORD
  5
24
102
{ACAD_REACTORS
330
22
102
}
330
22
100
AcDbXrecord
280
     1
270
     1
271
     1
  0
XRECORD
  5
23
102
{ACAD_REACTORS
330
22
102
}
330
22
100
AcDbXrecord
280
     1
270
     1
271
     1
  0
XRECORD
  5
27
102
{ACAD_REACTORS
330
22
102
}
330
22
100
AcDbXrecord
280
     1
270
     1
271
     1
  0
XRECORD
  5
26
102
{ACAD_REACTORS
330
22
102
}
330
22
100
AcDbXrecord
280
     1
270
     1
271
     1
  0
XRECORD
  5
28
102
{ACAD_REACTORS
330
22
102
}
330
22
100
AcDbXrecord
280
     1
270
     1
271
     1
  0
XRECORD
  5
25
102
{ACAD_REACTORS
330
22
102
}
330
22
100
AcDbXrecord
280
     1
270
     1
271
     1
  0
CELLSTYLEMAP
  5
1920
102
{ACAD_REACTORS
330
5AB
102
}
330
5AB
100
AcDbCellStyleMap
 90
        3
300
CELLSTYLE
  1
TABLEFORMAT_BEGIN
 90
        5
170
     1
 91
        0
 92
    32768
 62
   257
 93
        1
300
CONTENTFORMAT
  1
CONTENTFORMAT_BEGIN
 90
        0
 91
        0
 92
      512
 93
        0
300

 40
0.0
140
1.0
 94
        5
 62
     0
340
55
144
0.25
309
CONTENTFORMAT_END
171
     1
301
MARGIN
  1
CELLMARGIN_BEGIN
 40
0.06
 40
0.06
 40
0.06
 40
0.06
 40
0.18
 40
0.18
309
CELLMARGIN_END
 94
        6
 95
        1
302
GRIDFORMAT
  1
GRIDFORMAT_BEGIN
 90
        0
 91
        1
 62
     0
 92
       -2
340
0
 93
        0
 40
0.045
309
GRIDFORMAT_END
 95
        2
302
GRIDFORMAT
  1
GRIDFORMAT_BEGIN
 90
        0
 91
        1
 62
     0
 92
       -2
340
0
 93
        0
 40
0.045
309
GRIDFORMAT_END
 95
        4
302
GRIDFORMAT
  1
GRIDFORMAT_BEGIN
 90
        0
 91
        1
 62
     0
 92
       -2
340
0
 93
        0
 40
0.045
309
GRIDFORMAT_END
 95
        8
302
GRIDFORMAT
  1
GRIDFORMAT_BEGIN
 90
        0
 91
        1
 62
     0
 92
       -2
340
0
 93
        0
 40
0.045
309
GRIDFORMAT_END
 95
       16
302
GRIDFORMAT
  1
GRIDFORMAT_BEGIN
 90
        0
 91
        1
 62
     0
 92
       -2
340
0
 93
        0
 40
0.045
309
GRIDFORMAT_END
 95
       32
302
GRIDFORMAT
  1
GRIDFORMAT_BEGIN
 90
        0
 91
        1
 62
     0
 92
       -2
340
0
 93
        0
 40
0.045
309
GRIDFORMAT_END
309
TABLEFORMAT_END
  1
CELLSTYLE_BEGIN
 90
        1
 91
        1
300
_TITLE
309
CELLSTYLE_END
300
CELLSTYLE
  1
TABLEFORMAT_BEGIN
 90
        5
170
     1
 91
        0
 92
        0
 62
   257
 93
        1
300
CONTENTFORMAT
  1
CONTENTFORMAT_BEGIN
 90
        0
 91
        0
 92
      512
 93
        0
300

 40
0.0
140
1.0
 94
        5
 62
     0
340
55
144
0.18
309
CONTENTFORMAT_END
171
     1
301
MARGIN
  1
CELLMARGIN_BEGIN
 40
0.06
 40
0.06
 40
0.06
 40
0.06
 40
0.18
 40
0.18
309
CELLMARGIN_END
 94
        6
 95
        1
302
GRIDFORMAT
  1
GRIDFORMAT_BEGIN
 90
        0
 91
        1
 62
     0
 92
       -2
340
0
 93
        0
 40
0.045
309
GRIDFORMAT_END
 95
        2
302
GRIDFORMAT
  1
GRIDFORMAT_BEGIN
 90
        0
 91
        1
 62
     0
 92
       -2
340
0
 93
        0
 40
0.045
309
GRIDFORMAT_END
 95
        4
302
GRIDFORMAT
  1
GRIDFORMAT_BEGIN
 90
        0
 91
        1
 62
     0
 92
       -2
340
0
 93
        0
 40
0.045
309
GRIDFORMAT_END
 95
        8
302
GRIDFORMAT
  1
GRIDFORMAT_BEGIN
 90
        0
 91
        1
 62
     0
 92
       -2
340
0
 93
        0
 40
0.045
309
GRIDFORMAT_END
 95
       16
302
GRIDFORMAT
  1
GRIDFORMAT_BEGIN
 90
        0
 91
        1
 62
     0
 92
       -2
340
0
 93
        0
 40
0.045
309
GRIDFORMAT_END
 95
       32
302
GRIDFORMAT
  1
GRIDFORMAT_BEGIN
 90
        0
 91
        1
 62
     0
 92
       -2
340
0
 93
        0
 40
0.045
309
GRIDFORMAT_END
309
TABLEFORMAT_END
  1
CELLSTYLE_BEGIN
 90
        2
 91
        1
300
_HEADER
309
CELLSTYLE_END
300
CELLSTYLE
  1
TABLEFORMAT_BEGIN
 90
        5
170
     1
 91
        0
 92
        0
 62
   257
 93
        1
300
CONTENTFORMAT
  1
CONTENTFORMAT_BEGIN
 90
        0
 91
        0
 92
      512
 93
        0
300

 40
0.0
140
1.0
 94
        2
 62
     0
340
55
144
0.18
309
CONTENTFORMAT_END
171
     1
301
MARGIN
  1
CELLMARGIN_BEGIN
 40
0.06
 40
0.06
 40
0.06
 40
0.06
 40
0.18
 40
0.18
309
CELLMARGIN_END
 94
        6
 95
        1
302
GRIDFORMAT
  1
GRIDFORMAT_BEGIN
 90
        0
 91
        1
 62
     0
 92
       -2
340
0
 93
        0
 40
0.045
309
GRIDFORMAT_END
 95
        2
302
GRIDFORMAT
  1
GRIDFORMAT_BEGIN
 90
        0
 91
        1
 62
     0
 92
       -2
340
0
 93
        0
 40
0.045
309
GRIDFORMAT_END
 95
        4
302
GRIDFORMAT
  1
GRIDFORMAT_BEGIN
 90
        0
 91
        1
 62
     0
 92
       -2
340
0
 93
        0
 40
0.045
309
GRIDFORMAT_END
 95
        8
302
GRIDFORMAT
  1
GRIDFORMAT_BEGIN
 90
        0
 91
        1
 62
     0
 92
       -2
340
0
 93
        0
 40
0.045
309
GRIDFORMAT_END
 95
       16
302
GRIDFORMAT
  1
GRIDFORMAT_BEGIN
 90
        0
 91
        1
 62
     0
 92
       -2
340
0
 93
        0
 40
0.045
309
GRIDFORMAT_END
 95
       32
302
GRIDFORMAT
  1
GRIDFORMAT_BEGIN
 90
        0
 91
        1
 62
     0
 92
       -2
340
0
 93
        0
 40
0.045
309
GRIDFORMAT_END
309
TABLEFORMAT_END
  1
CELLSTYLE_BEGIN
 90
        3
 91
        2
300
_DATA
309
CELLSTYLE_END
  0
XRECORD
  5
1957
102
{ACAD_REACTORS
330
5AB
102
}
330
5AB
100
AcDbXrecord
280
     1
102
ACAD_ROUNDTRIP_PRE2007_TABLESTYLE
 90
      512
 91
        0
  1

 92
      512
 93
        0
  2

 94
      512
 95
        0
  3

  0
XRECORD
  5
1932
102
{ACAD_REACTORS
330
1931
102
}
330
1931
100
AcDbXrecord
280
     1
102
RTVSPropertyOp0
 70
     1
102
RTVSPropertyOp1
 70
     1
102
RTVSPropertyOp2
 70
     1
102
RTVSPropertyOp3
 70
     1
102
RTVSPropertyOp4
 70
     1
102
RTVSPropertyOp5
 70
     1
102
RTVSPropertyOp6
 70
     1
102
RTVSPropertyOp7
 70
     1
102
RTVSPropertyOp8
 70
     1
102
RTVSPropertyOp9
 70
     1
102
RTVSPropertyOp10
 70
     1
102
RTVSPropertyOp11
 70
     1
102
RTVSPropertyOp12
 70
     1
102
RTVSPropertyOp13
 70
     1
102
RTVSPropertyOp14
 70
     1
102
RTVSPropertyOp15
 70
     1
102
RTVSPropertyOp16
 70
     1
102
RTVSPropertyOp17
 70
     1
102
RTVSPropertyOp18
 70
     1
102
RTVSPropertyOp19
 70
     1
102
RTVSPropertyOp20
 70
     1
102
RTVSPropertyOp21
 70
     1
102
RTVSPropertyOp22
 70
     1
102
RTVSPropertyOp23
 70
     1
102
RTVSPropertyOp24
 70
     1
102
RTVSPropertyOp25
 70
     1
102
RTVSPropertyOp26
 70
     1
102
RTVSPropertyOp27
 70
     1
102
RTVSPropertyOp28
 70
     1
102
RTVSPropertyOp29
 70
     1
102
RTVSPropertyOp30
 70
     1
102
RTVSPropertyOp31
 70
     1
102
RTVSPropertyOp32
 70
     1
  0
XRECORD
  5
195D
102
{ACAD_REACTORS
330
195C
102
}
330
195C
100
AcDbXrecord
280
     1
102
RTVSPropertyOp0
 70
     1
102
RTVSPropertyOp1
 70
     1
102
RTVSPropertyOp2
 70
     1
102
RTVSPropertyOp3
 70
     1
102
RTVSPropertyOp4
 70
     1
102
RTVSPropertyOp5
 70
     1
102
RTVSPropertyOp6
 70
     1
102
RTVSPropertyOp7
 70
     1
102
RTVSPropertyOp8
 70
     1
102
RTVSPropertyOp9
 70
     1
102
RTVSPropertyOp10
 70
     1
102
RTVSPropertyOp11
 70
     1
102
RTVSPropertyOp12
 70
     1
102
RTVSPropertyOp13
 70
     1
102
RTVSPropertyOp14
 70
     1
102
RTVSPropertyOp15
 70
     1
102
RTVSPropertyOp16
 70
     1
102
RTVSPropertyOp17
 70
     1
102
RTVSPropertyOp18
 70
     1
102
RTVSPropertyOp19
 70
     1
102
RTVSPropertyOp20
 70
     1
102
RTVSPropertyOp21
 70
     1
102
RTVSPropertyOp22
 70
     1
102
RTVSPropertyOp23
 70
     1
102
RTVSPropertyOp24
 70
     1
102
RTVSPropertyOp25
 70
     1
102
RTVSPropertyOp26
 70
     1
102
RTVSPropertyOp27
 70
     1
102
RTVSPropertyOp28
 70
     1
102
RTVSPropertyOp29
 70
     1
102
RTVSPropertyOp30
 70
     1
102
RTVSPropertyOp31
 70
     1
102
RTVSPropertyOp32
 70
     1
  0
XRECORD
  5
1930
102
{ACAD_REACTORS
330
192F
102
}
330
192F
100
AcDbXrecord
280
     1
102
RTVSPropertyOp0
 70
     1
102
RTVSPropertyOp1
 70
     1
102
RTVSPropertyOp2
 70
     1
102
RTVSPropertyOp3
 70
     1
102
RTVSPropertyOp4
 70
     1
102
RTVSPropertyOp5
 70
     1
102
RTVSPropertyOp6
 70
     1
102
RTVSPropertyOp7
 70
     1
102
RTVSPropertyOp8
 70
     1
102
RTVSPropertyOp9
 70
     1
102
RTVSPropertyOp10
 70
     1
102
RTVSPropertyOp11
 70
     1
102
RTVSPropertyOp12
 70
     1
102
RTVSPropertyOp13
 70
     1
102
RTVSPropertyOp14
 70
     1
102
RTVSPropertyOp15
 70
     1
102
RTVSPropertyOp16
 70
     1
102
RTVSPropertyOp17
 70
     1
102
RTVSPropertyOp18
 70
     1
102
RTVSPropertyOp19
 70
     1
102
RTVSPropertyOp20
 70
     1
102
RTVSPropertyOp21
 70
     1
102
RTVSPropertyOp22
 70
     1
102
RTVSPropertyOp23
 70
     1
102
RTVSPropertyOp24
 70
     1
102
RTVSPropertyOp25
 70
     1
102
RTVSPropertyOp26
 70
     1
102
RTVSPropertyOp27
 70
     1
102
RTVSPropertyOp28
 70
     1
102
RTVSPropertyOp29
 70
     1
102
RTVSPropertyOp30
 70
     1
102
RTVSPropertyOp31
 70
     1
102
RTVSPropertyOp32
 70
     1
  0
XRECORD
  5
193E
102
{ACAD_REACTORS
330
193D
102
}
330
193D
100
AcDbXrecord
280
     1
102
RTVSPropertyOp0
 70
     1
102
RTVSPropertyOp1
 70
     1
102
RTVSPropertyOp2
 70
     1
102
RTVSPropertyOp3
 70
     1
102
RTVSPropertyOp4
 70
     1
102
RTVSPropertyOp5
 70
     1
102
RTVSPropertyOp6
 70
     1
102
RTVSPropertyOp7
 70
     1
102
RTVSPropertyOp8
 70
     1
102
RTVSPropertyOp9
 70
     1
102
RTVSPropertyOp10
 70
     1
102
RTVSPropertyOp11
 70
     1
102
RTVSPropertyOp12
 70
     1
102
RTVSPropertyOp13
 70
     1
102
RTVSPropertyOp14
 70
     1
102
RTVSPropertyOp15
 70
     1
102
RTVSPropertyOp16
 70
     1
102
RTVSPropertyOp17
 70
     1
102
RTVSPropertyOp18
 70
     1
102
RTVSPropertyOp19
 70
     1
102
RTVSPropertyOp20
 70
     1
102
RTVSPropertyOp21
 70
     1
102
RTVSPropertyOp22
 70
     1
102
RTVSPropertyOp23
 70
     1
102
RTVSPropertyOp24
 70
     1
102
RTVSPropertyOp25
 70
     1
102
RTVSPropertyOp26
 70
     1
102
RTVSPropertyOp27
 70
     1
102
RTVSPropertyOp28
 70
     1
102
RTVSPropertyOp29
 70
     1
102
RTVSPropertyOp30
 70
     1
102
RTVSPropertyOp31
 70
     1
102
RTVSPropertyOp32
 70
     1
  0
XRECORD
  5
1946
102
{ACAD_REACTORS
330
1945
102
}
330
1945
100
AcDbXrecord
280
     1
102
RTVSPropertyOp0
 70
     1
102
RTVSPropertyOp1
 70
     1
102
RTVSPropertyOp2
 70
     1
102
RTVSPropertyOp3
 70
     1
102
RTVSPropertyOp4
 70
     1
102
RTVSPropertyOp5
 70
     1
102
RTVSPropertyOp6
 70
     1
102
RTVSPropertyOp7
 70
     1
102
RTVSPropertyOp8
 70
     1
102
RTVSPropertyOp9
 70
     1
102
RTVSPropertyOp10
 70
     1
102
RTVSPropertyOp11
 70
     1
102
RTVSPropertyOp12
 70
     1
102
RTVSPropertyOp13
 70
     1
102
RTVSPropertyOp14
 70
     1
102
RTVSPropertyOp15
 70
     1
102
RTVSPropertyOp16
 70
     1
102
RTVSPropertyOp17
 70
     1
102
RTVSPropertyOp18
 70
     1
102
RTVSPropertyOp19
 70
     1
102
RTVSPropertyOp20
 70
     1
102
RTVSPropertyOp21
 70
     1
102
RTVSPropertyOp22
 70
     1
102
RTVSPropertyOp23
 70
     1
102
RTVSPropertyOp24
 70
     1
102
RTVSPropertyOp25
 70
     1
102
RTVSPropertyOp26
 70
     1
102
RTVSPropertyOp27
 70
     1
102
RTVSPropertyOp28
 70
     1
102
RTVSPropertyOp29
 70
     1
102
RTVSPropertyOp30
 70
     1
102
RTVSPropertyOp31
 70
     1
102
RTVSPropertyOp32
 70
     1
  0
XRECORD
  5
1938
102
{ACAD_REACTORS
330
1937
102
}
330
1937
100
AcDbXrecord
280
     1
102
RTVSPropertyOp0
 70
     1
102
RTVSPropertyOp1
 70
     1
102
RTVSPropertyOp2
 70
     1
102
RTVSPropertyOp3
 70
     1
102
RTVSPropertyOp4
 70
     1
102
RTVSPropertyOp5
 70
     1
102
RTVSPropertyOp6
 70
     1
102
RTVSPropertyOp7
 70
     1
102
RTVSPropertyOp8
 70
     1
102
RTVSPropertyOp9
 70
     1
102
RTVSPropertyOp10
 70
     1
102
RTVSPropertyOp11
 70
     1
102
RTVSPropertyOp12
 70
     1
102
RTVSPropertyOp13
 70
     1
102
RTVSPropertyOp14
 70
     1
102
RTVSPropertyOp15
 70
     1
102
RTVSPropertyOp16
 70
     1
102
RTVSPropertyOp17
 70
     1
102
RTVSPropertyOp18
 70
     1
102
RTVSPropertyOp19
 70
     1
102
RTVSPropertyOp20
 70
     1
102
RTVSPropertyOp21
 70
     1
102
RTVSPropertyOp22
 70
     1
102
RTVSPropertyOp23
 70
     1
102
RTVSPropertyOp24
 70
     1
102
RTVSPropertyOp25
 70
     1
102
RTVSPropertyOp26
 70
     1
102
RTVSPropertyOp27
 70
     1
102
RTVSPropertyOp28
 70
     1
102
RTVSPropertyOp29
 70
     1
102
RTVSPropertyOp30
 70
     1
102
RTVSPropertyOp31
 70
     1
102
RTVSPropertyOp32
 70
     1
  0
XRECORD
  5
193C
102
{ACAD_REACTORS
330
193B
102
}
330
193B
100
AcDbXrecord
280
     1
102
RTVSPropertyOp0
 70
     1
102
RTVSPropertyOp1
 70
     1
102
RTVSPropertyOp2
 70
     1
102
RTVSPropertyOp3
 70
     1
102
RTVSPropertyOp4
 70
     1
102
RTVSPropertyOp5
 70
     1
102
RTVSPropertyOp6
 70
     1
102
RTVSPropertyOp7
 70
     1
102
RTVSPropertyOp8
 70
     1
102
RTVSPropertyOp9
 70
     1
102
RTVSPropertyOp10
 70
     1
102
RTVSPropertyOp11
 70
     1
102
RTVSPropertyOp12
 70
     1
102
RTVSPropertyOp13
 70
     1
102
RTVSPropertyOp14
 70
     1
102
RTVSPropertyOp15
 70
     1
102
RTVSPropertyOp16
 70
     1
102
RTVSPropertyOp17
 70
     1
102
RTVSPropertyOp18
 70
     1
102
RTVSPropertyOp19
 70
     1
102
RTVSPropertyOp20
 70
     1
102
RTVSPropertyOp21
 70
     1
102
RTVSPropertyOp22
 70
     1
102
RTVSPropertyOp23
 70
     1
102
RTVSPropertyOp24
 70
     1
102
RTVSPropertyOp25
 70
     1
102
RTVSPropertyOp26
 70
     1
102
RTVSPropertyOp27
 70
     1
102
RTVSPropertyOp28
 70
     1
102
RTVSPropertyOp29
 70
     1
102
RTVSPropertyOp30
 70
     1
102
RTVSPropertyOp31
 70
     1
102
RTVSPropertyOp32
 70
     1
  0
XRECORD
  5
1956
102
{ACAD_REACTORS
330
1955
102
}
330
1955
100
AcDbXrecord
280
     1
102
RTVSPropertyOp0
 70
     0
102
RTVSPropertyOp1
 70
     0
102
RTVSPropertyOp2
 70
     0
102
RTVSPropertyOp3
 70
     0
102
RTVSPropertyOp4
 70
     0
102
RTVSPropertyOp5
 70
     0
102
RTVSPropertyOp6
 70
     0
102
RTVSPropertyOp7
 70
     0
102
RTVSPropertyOp8
 70
     0
102
RTVSPropertyOp9
 70
     0
102
RTVSPropertyOp10
 70
     0
102
RTVSPropertyOp11
 70
     0
102
RTVSPropertyOp12
 70
     0
102
RTVSPropertyOp13
 70
     0
102
RTVSPropertyOp14
 70
     2
102
RTVSPropertyOp15
 70
     0
102
RTVSPropertyOp16
 70
     0
102
RTVSPropertyOp17
 70
     0
102
RTVSPropertyOp18
 70
     0
102
RTVSPropertyOp19
 70
     0
102
RTVSPropertyOp20
 70
     0
102
RTVSPropertyOp21
 70
     0
102
RTVSPropertyOp22
 70
     0
102
RTVSPropertyOp23
 70
     0
102
RTVSPropertyOp24
 70
     0
102
RTVSPropertyOp25
 70
     0
102
RTVSPropertyOp26
 70
     0
102
RTVSPropertyOp27
 70
     0
102
RTVSPropertyOp28
 70
     0
102
RTVSPropertyOp29
 70
     0
102
RTVSPropertyOp30
 70
     0
102
RTVSPropertyOp31
 70
     0
102
RTVSPropertyOp32
 70
     0
  0
XRECORD
  5
1944
102
{ACAD_REACTORS
330
1943
102
}
330
1943
100
AcDbXrecord
280
     1
102
RTVSPropertyOp0
 70
     1
102
RTVSPropertyOp1
 70
     1
102
RTVSPropertyOp2
 70
     1
102
RTVSPropertyOp3
 70
     1
102
RTVSPropertyOp4
 70
     1
102
RTVSPropertyOp5
 70
     1
102
RTVSPropertyOp6
 70
     1
102
RTVSPropertyOp7
 70
     1
102
RTVSPropertyOp8
 70
     1
102
RTVSPropertyOp9
 70
     1
102
RTVSPropertyOp10
 70
     1
102
RTVSPropertyOp11
 70
     1
102
RTVSPropertyOp12
 70
     1
102
RTVSPropertyOp13
 70
     1
102
RTVSPropertyOp14
 70
     1
102
RTVSPropertyOp15
 70
     1
102
RTVSPropertyOp16
 70
     1
102
RTVSPropertyOp17
 70
     1
102
RTVSPropertyOp18
 70
     1
102
RTVSPropertyOp19
 70
     1
102
RTVSPropertyOp20
 70
     1
102
RTVSPropertyOp21
 70
     1
102
RTVSPropertyOp22
 70
     1
102
RTVSPropertyOp23
 70
     1
102
RTVSPropertyOp24
 70
     1
102
RTVSPropertyOp25
 70
     1
102
RTVSPropertyOp26
 70
     1
102
RTVSPropertyOp27
 70
     1
102
RTVSPropertyOp28
 70
     1
102
RTVSPropertyOp29
 70
     1
102
RTVSPropertyOp30
 70
     1
102
RTVSPropertyOp31
 70
     1
102
RTVSPropertyOp32
 70
     1
  0
XRECORD
  5
1928
102
{ACAD_REACTORS
330
1927
102
}
330
1927
100
AcDbXrecord
280
     1
102
RTVSPropertyOp0
 70
     1
102
RTVSPropertyOp1
 70
     1
102
RTVSPropertyOp2
 70
     1
102
RTVSPropertyOp3
 70
     1
102
RTVSPropertyOp4
 70
     1
102
RTVSPropertyOp5
 70
     1
102
RTVSPropertyOp6
 70
     1
102
RTVSPropertyOp7
 70
     1
102
RTVSPropertyOp8
 70
     1
102
RTVSPropertyOp9
 70
     1
102
RTVSPropertyOp10
 70
     1
102
RTVSPropertyOp11
 70
     1
102
RTVSPropertyOp12
 70
     1
102
RTVSPropertyOp13
 70
     1
102
RTVSPropertyOp14
 70
     1
102
RTVSPropertyOp15
 70
     1
102
RTVSPropertyOp16
 70
     1
102
RTVSPropertyOp17
 70
     1
102
RTVSPropertyOp18
 70
     1
102
RTVSPropertyOp19
 70
     1
102
RTVSPropertyOp20
 70
     1
102
RTVSPropertyOp21
 70
     1
102
RTVSPropertyOp22
 70
     1
102
RTVSPropertyOp23
 70
     1
102
RTVSPropertyOp24
 70
     1
102
RTVSPropertyOp25
 70
     1
102
RTVSPropertyOp26
 70
     1
102
RTVSPropertyOp27
 70
     1
102
RTVSPropertyOp28
 70
     1
102
RTVSPropertyOp29
 70
     1
102
RTVSPropertyOp30
 70
     1
102
RTVSPropertyOp31
 70
     1
102
RTVSPropertyOp32
 70
     1
  0
XRECORD
  5
192A
102
{ACAD_REACTORS
330
1929
102
}
330
1929
100
AcDbXrecord
280
     1
102
RTVSPropertyOp0
 70
     1
102
RTVSPropertyOp1
 70
     1
102
RTVSPropertyOp2
 70
     1
102
RTVSPropertyOp3
 70
     1
102
RTVSPropertyOp4
 70
     1
102
RTVSPropertyOp5
 70
     1
102
RTVSPropertyOp6
 70
     1
102
RTVSPropertyOp7
 70
     1
102
RTVSPropertyOp8
 70
     1
102
RTVSPropertyOp9
 70
     1
102
RTVSPropertyOp10
 70
     1
102
RTVSPropertyOp11
 70
     1
102
RTVSPropertyOp12
 70
     1
102
RTVSPropertyOp13
 70
     1
102
RTVSPropertyOp14
 70
     1
102
RTVSPropertyOp15
 70
     1
102
RTVSPropertyOp16
 70
     1
102
RTVSPropertyOp17
 70
     1
102
RTVSPropertyOp18
 70
     1
102
RTVSPropertyOp19
 70
     1
102
RTVSPropertyOp20
 70
     1
102
RTVSPropertyOp21
 70
     1
102
RTVSPropertyOp22
 70
     1
102
RTVSPropertyOp23
 70
     1
102
RTVSPropertyOp24
 70
     1
102
RTVSPropertyOp25
 70
     1
102
RTVSPropertyOp26
 70
     1
102
RTVSPropertyOp27
 70
     1
102
RTVSPropertyOp28
 70
     1
102
RTVSPropertyOp29
 70
     1
102
RTVSPropertyOp30
 70
     1
102
RTVSPropertyOp31
 70
     1
102
RTVSPropertyOp32
 70
     1
  0
XRECORD
  5
192C
102
{ACAD_REACTORS
330
192B
102
}
330
192B
100
AcDbXrecord
280
     1
102
RTVSPropertyOp0
 70
     1
102
RTVSPropertyOp1
 70
     1
102
RTVSPropertyOp2
 70
     1
102
RTVSPropertyOp3
 70
     1
102
RTVSPropertyOp4
 70
     1
102
RTVSPropertyOp5
 70
     1
102
RTVSPropertyOp6
 70
     1
102
RTVSPropertyOp7
 70
     1
102
RTVSPropertyOp8
 70
     1
102
RTVSPropertyOp9
 70
     1
102
RTVSPropertyOp10
 70
     1
102
RTVSPropertyOp11
 70
     1
102
RTVSPropertyOp12
 70
     1
102
RTVSPropertyOp13
 70
     1
102
RTVSPropertyOp14
 70
     1
102
RTVSPropertyOp15
 70
     1
102
RTVSPropertyOp16
 70
     1
102
RTVSPropertyOp17
 70
     1
102
RTVSPropertyOp18
 70
     1
102
RTVSPropertyOp19
 70
     1
102
RTVSPropertyOp20
 70
     1
102
RTVSPropertyOp21
 70
     1
102
RTVSPropertyOp22
 70
     1
102
RTVSPropertyOp23
 70
     1
102
RTVSPropertyOp24
 70
     1
102
RTVSPropertyOp25
 70
     1
102
RTVSPropertyOp26
 70
     1
102
RTVSPropertyOp27
 70
     1
102
RTVSPropertyOp28
 70
     1
102
RTVSPropertyOp29
 70
     1
102
RTVSPropertyOp30
 70
     1
102
RTVSPropertyOp31
 70
     1
102
RTVSPropertyOp32
 70
     1
  0
XRECORD
  5
192E
102
{ACAD_REACTORS
330
192D
102
}
330
192D
100
AcDbXrecord
280
     1
102
RTVSPropertyOp0
 70
     1
102
RTVSPropertyOp1
 70
     1
102
RTVSPropertyOp2
 70
     1
102
RTVSPropertyOp3
 70
     1
102
RTVSPropertyOp4
 70
     1
102
RTVSPropertyOp5
 70
     1
102
RTVSPropertyOp6
 70
     1
102
RTVSPropertyOp7
 70
     1
102
RTVSPropertyOp8
 70
     1
102
RTVSPropertyOp9
 70
     1
102
RTVSPropertyOp10
 70
     1
102
RTVSPropertyOp11
 70
     1
102
RTVSPropertyOp12
 70
     1
102
RTVSPropertyOp13
 70
     1
102
RTVSPropertyOp14
 70
     1
102
RTVSPropertyOp15
 70
     1
102
RTVSPropertyOp16
 70
     1
102
RTVSPropertyOp17
 70
     1
102
RTVSPropertyOp18
 70
     1
102
RTVSPropertyOp19
 70
     1
102
RTVSPropertyOp20
 70
     1
102
RTVSPropertyOp21
 70
     1
102
RTVSPropertyOp22
 70
     1
102
RTVSPropertyOp23
 70
     1
102
RTVSPropertyOp24
 70
     1
102
RTVSPropertyOp25
 70
     1
102
RTVSPropertyOp26
 70
     1
102
RTVSPropertyOp27
 70
     1
102
RTVSPropertyOp28
 70
     1
102
RTVSPropertyOp29
 70
     1
102
RTVSPropertyOp30
 70
     1
102
RTVSPropertyOp31
 70
     1
102
RTVSPropertyOp32
 70
     1
  0
XRECORD
  5
1936
102
{ACAD_REACTORS
330
1935
102
}
330
1935
100
AcDbXrecord
280
     1
102
RTVSPropertyOp0
 70
     1
102
RTVSPropertyOp1
 70
     1
102
RTVSPropertyOp2
 70
     1
102
RTVSPropertyOp3
 70
     1
102
RTVSPropertyOp4
 70
     1
102
RTVSPropertyOp5
 70
     1
102
RTVSPropertyOp6
 70
     1
102
RTVSPropertyOp7
 70
     1
102
RTVSPropertyOp8
 70
     1
102
RTVSPropertyOp9
 70
     1
102
RTVSPropertyOp10
 70
     1
102
RTVSPropertyOp11
 70
     1
102
RTVSPropertyOp12
 70
     1
102
RTVSPropertyOp13
 70
     1
102
RTVSPropertyOp14
 70
     1
102
RTVSPropertyOp15
 70
     1
102
RTVSPropertyOp16
 70
     1
102
RTVSPropertyOp17
 70
     1
102
RTVSPropertyOp18
 70
     1
102
RTVSPropertyOp19
 70
     1
102
RTVSPropertyOp20
 70
     1
102
RTVSPropertyOp21
 70
     1
102
RTVSPropertyOp22
 70
     1
102
RTVSPropertyOp23
 70
     1
102
RTVSPropertyOp24
 70
     1
102
RTVSPropertyOp25
 70
     1
102
RTVSPropertyOp26
 70
     1
102
RTVSPropertyOp27
 70
     1
102
RTVSPropertyOp28
 70
     1
102
RTVSPropertyOp29
 70
     1
102
RTVSPropertyOp30
 70
     1
102
RTVSPropertyOp31
 70
     1
102
RTVSPropertyOp32
 70
     1
  0
XRECORD
  5
1952
102
{ACAD_REACTORS
330
1951
102
}
330
1951
100
AcDbXrecord
280
     1
102
RTVSPropertyOp0
 70
     0
102
RTVSPropertyOp1
 70
     0
102
RTVSPropertyOp2
 70
     0
102
RTVSPropertyOp3
 70
     0
102
RTVSPropertyOp4
 70
     0
102
RTVSPropertyOp5
 70
     0
102
RTVSPropertyOp6
 70
     0
102
RTVSPropertyOp7
 70
     0
102
RTVSPropertyOp8
 70
     0
102
RTVSPropertyOp9
 70
     0
102
RTVSPropertyOp10
 70
     0
102
RTVSPropertyOp11
 70
     0
102
RTVSPropertyOp12
 70
     0
102
RTVSPropertyOp13
 70
     0
102
RTVSPropertyOp14
 70
     2
102
RTVSPropertyOp15
 70
     0
102
RTVSPropertyOp16
 70
     0
102
RTVSPropertyOp17
 70
     0
102
RTVSPropertyOp18
 70
     0
102
RTVSPropertyOp19
 70
     0
102
RTVSPropertyOp20
 70
     0
102
RTVSPropertyOp21
 70
     0
102
RTVSPropertyOp22
 70
     0
102
RTVSPropertyOp23
 70
     0
102
RTVSPropertyOp24
 70
     0
102
RTVSPropertyOp25
 70
     0
102
RTVSPropertyOp26
 70
     0
102
RTVSPropertyOp27
 70
     0
102
RTVSPropertyOp28
 70
     0
102
RTVSPropertyOp29
 70
     0
102
RTVSPropertyOp30
 70
     0
102
RTVSPropertyOp31
 70
     0
102
RTVSPropertyOp32
 70
     0
  0
XRECORD
  5
1942
102
{ACAD_REACTORS
330
1941
102
}
330
1941
100
AcDbXrecord
280
     1
102
RTVSPropertyOp0
 70
     1
102
RTVSPropertyOp1
 70
     1
102
RTVSPropertyOp2
 70
     1
102
RTVSPropertyOp3
 70
     1
102
RTVSPropertyOp4
 70
     1
102
RTVSPropertyOp5
 70
     1
102
RTVSPropertyOp6
 70
     1
102
RTVSPropertyOp7
 70
     1
102
RTVSPropertyOp8
 70
     1
102
RTVSPropertyOp9
 70
     1
102
RTVSPropertyOp10
 70
     1
102
RTVSPropertyOp11
 70
     1
102
RTVSPropertyOp12
 70
     1
102
RTVSPropertyOp13
 70
     1
102
RTVSPropertyOp14
 70
     1
102
RTVSPropertyOp15
 70
     1
102
RTVSPropertyOp16
 70
     1
102
RTVSPropertyOp17
 70
     1
102
RTVSPropertyOp18
 70
     1
102
RTVSPropertyOp19
 70
     1
102
RTVSPropertyOp20
 70
     1
102
RTVSPropertyOp21
 70
     1
102
RTVSPropertyOp22
 70
     1
102
RTVSPropertyOp23
 70
     1
102
RTVSPropertyOp24
 70
     1
102
RTVSPropertyOp25
 70
     1
102
RTVSPropertyOp26
 70
     1
102
RTVSPropertyOp27
 70
     1
102
RTVSPropertyOp28
 70
     1
102
RTVSPropertyOp29
 70
     1
102
RTVSPropertyOp30
 70
     1
102
RTVSPropertyOp31
 70
     1
102
RTVSPropertyOp32
 70
     1
  0
XRECORD
  5
1954
102
{ACAD_REACTORS
330
1953
102
}
330
1953
100
AcDbXrecord
280
     1
102
RTVSPropertyOp0
 70
     0
102
RTVSPropertyOp1
 70
     0
102
RTVSPropertyOp2
 70
     0
102
RTVSPropertyOp3
 70
     0
102
RTVSPropertyOp4
 70
     0
102
RTVSPropertyOp5
 70
     0
102
RTVSPropertyOp6
 70
     0
102
RTVSPropertyOp7
 70
     0
102
RTVSPropertyOp8
 70
     0
102
RTVSPropertyOp9
 70
     0
102
RTVSPropertyOp10
 70
     0
102
RTVSPropertyOp11
 70
     0
102
RTVSPropertyOp12
 70
     0
102
RTVSPropertyOp13
 70
     0
102
RTVSPropertyOp14
 70
     2
102
RTVSPropertyOp15
 70
     0
102
RTVSPropertyOp16
 70
     0
102
RTVSPropertyOp17
 70
     0
102
RTVSPropertyOp18
 70
     0
102
RTVSPropertyOp19
 70
     0
102
RTVSPropertyOp20
 70
     0
102
RTVSPropertyOp21
 70
     0
102
RTVSPropertyOp22
 70
     0
102
RTVSPropertyOp23
 70
     0
102
RTVSPropertyOp24
 70
     0
102
RTVSPropertyOp25
 70
     0
102
RTVSPropertyOp26
 70
     0
102
RTVSPropertyOp27
 70
     0
102
RTVSPropertyOp28
 70
     0
102
RTVSPropertyOp29
 70
     0
102
RTVSPropertyOp30
 70
     0
102
RTVSPropertyOp31
 70
     0
102
RTVSPropertyOp32
 70
     0
  0
XRECORD
  5
193A
102
{ACAD_REACTORS
330
1939
102
}
330
1939
100
AcDbXrecord
280
     1
102
RTVSPropertyOp0
 70
     1
102
RTVSPropertyOp1
 70
     1
102
RTVSPropertyOp2
 70
     1
102
RTVSPropertyOp3
 70
     1
102
RTVSPropertyOp4
 70
     1
102
RTVSPropertyOp5
 70
     1
102
RTVSPropertyOp6
 70
     1
102
RTVSPropertyOp7
 70
     1
102
RTVSPropertyOp8
 70
     1
102
RTVSPropertyOp9
 70
     1
102
RTVSPropertyOp10
 70
     1
102
RTVSPropertyOp11
 70
     1
102
RTVSPropertyOp12
 70
     1
102
RTVSPropertyOp13
 70
     1
102
RTVSPropertyOp14
 70
     1
102
RTVSPropertyOp15
 70
     1
102
RTVSPropertyOp16
 70
     1
102
RTVSPropertyOp17
 70
     1
102
RTVSPropertyOp18
 70
     1
102
RTVSPropertyOp19
 70
     1
102
RTVSPropertyOp20
 70
     1
102
RTVSPropertyOp21
 70
     1
102
RTVSPropertyOp22
 70
     1
102
RTVSPropertyOp23
 70
     1
102
RTVSPropertyOp24
 70
     1
102
RTVSPropertyOp25
 70
     1
102
RTVSPropertyOp26
 70
     1
102
RTVSPropertyOp27
 70
     1
102
RTVSPropertyOp28
 70
     1
102
RTVSPropertyOp29
 70
     1
102
RTVSPropertyOp30
 70
     1
102
RTVSPropertyOp31
 70
     1
102
RTVSPropertyOp32
 70
     1
  0
XRECORD
  5
1950
102
{ACAD_REACTORS
330
194F
102
}
330
194F
100
AcDbXrecord
280
     1
102
RTVSPropertyOp0
 70
     1
102
RTVSPropertyOp1
 70
     1
102
RTVSPropertyOp2
 70
     1
102
RTVSPropertyOp3
 70
     1
102
RTVSPropertyOp4
 70
     1
102
RTVSPropertyOp5
 70
     1
102
RTVSPropertyOp6
 70
     1
102
RTVSPropertyOp7
 70
     1
102
RTVSPropertyOp8
 70
     1
102
RTVSPropertyOp9
 70
     1
102
RTVSPropertyOp10
 70
     1
102
RTVSPropertyOp11
 70
     1
102
RTVSPropertyOp12
 70
     1
102
RTVSPropertyOp13
 70
     1
102
RTVSPropertyOp14
 70
     1
102
RTVSPropertyOp15
 70
     1
102
RTVSPropertyOp16
 70
     1
102
RTVSPropertyOp17
 70
     1
102
RTVSPropertyOp18
 70
     1
102
RTVSPropertyOp19
 70
     1
102
RTVSPropertyOp20
 70
     1
102
RTVSPropertyOp21
 70
     1
102
RTVSPropertyOp22
 70
     1
102
RTVSPropertyOp23
 70
     1
102
RTVSPropertyOp24
 70
     1
102
RTVSPropertyOp25
 70
     1
102
RTVSPropertyOp26
 70
     1
102
RTVSPropertyOp27
 70
     1
102
RTVSPropertyOp28
 70
     1
102
RTVSPropertyOp29
 70
     1
102
RTVSPropertyOp30
 70
     1
102
RTVSPropertyOp31
 70
     1
102
RTVSPropertyOp32
 70
     1
  0
XRECORD
  5
194E
102
{ACAD_REACTORS
330
194D
102
}
330
194D
100
AcDbXrecord
280
     1
102
RTVSPropertyOp0
 70
     1
102
RTVSPropertyOp1
 70
     1
102
RTVSPropertyOp2
 70
     1
102
RTVSPropertyOp3
 70
     1
102
RTVSPropertyOp4
 70
     1
102
RTVSPropertyOp5
 70
     1
102
RTVSPropertyOp6
 70
     1
102
RTVSPropertyOp7
 70
     1
102
RTVSPropertyOp8
 70
     1
102
RTVSPropertyOp9
 70
     1
102
RTVSPropertyOp10
 70
     1
102
RTVSPropertyOp11
 70
     1
102
RTVSPropertyOp12
 70
     1
102
RTVSPropertyOp13
 70
     1
102
RTVSPropertyOp14
 70
     1
102
RTVSPropertyOp15
 70
     1
102
RTVSPropertyOp16
 70
     1
102
RTVSPropertyOp17
 70
     1
102
RTVSPropertyOp18
 70
     1
102
RTVSPropertyOp19
 70
     1
102
RTVSPropertyOp20
 70
     1
102
RTVSPropertyOp21
 70
     1
102
RTVSPropertyOp22
 70
     1
102
RTVSPropertyOp23
 70
     1
102
RTVSPropertyOp24
 70
     1
102
RTVSPropertyOp25
 70
     1
102
RTVSPropertyOp26
 70
     1
102
RTVSPropertyOp27
 70
     1
102
RTVSPropertyOp28
 70
     1
102
RTVSPropertyOp29
 70
     1
102
RTVSPropertyOp30
 70
     1
102
RTVSPropertyOp31
 70
     1
102
RTVSPropertyOp32
 70
     1
  0
XRECORD
  5
1948
102
{ACAD_REACTORS
330
1947
102
}
330
1947
100
AcDbXrecord
280
     1
102
RTVSPropertyOp0
 70
     1
102
RTVSPropertyOp1
 70
     1
102
RTVSPropertyOp2
 70
     1
102
RTVSPropertyOp3
 70
     1
102
RTVSPropertyOp4
 70
     1
102
RTVSPropertyOp5
 70
     1
102
RTVSPropertyOp6
 70
     1
102
RTVSPropertyOp7
 70
     1
102
RTVSPropertyOp8
 70
     1
102
RTVSPropertyOp9
 70
     1
102
RTVSPropertyOp10
 70
     1
102
RTVSPropertyOp11
 70
     1
102
RTVSPropertyOp12
 70
     1
102
RTVSPropertyOp13
 70
     1
102
RTVSPropertyOp14
 70
     1
102
RTVSPropertyOp15
 70
     1
102
RTVSPropertyOp16
 70
     1
102
RTVSPropertyOp17
 70
     1
102
RTVSPropertyOp18
 70
     1
102
RTVSPropertyOp19
 70
     1
102
RTVSPropertyOp20
 70
     1
102
RTVSPropertyOp21
 70
     1
102
RTVSPropertyOp22
 70
     1
102
RTVSPropertyOp23
 70
     1
102
RTVSPropertyOp24
 70
     1
102
RTVSPropertyOp25
 70
     1
102
RTVSPropertyOp26
 70
     1
102
RTVSPropertyOp27
 70
     1
102
RTVSPropertyOp28
 70
     1
102
RTVSPropertyOp29
 70
     1
102
RTVSPropertyOp30
 70
     1
102
RTVSPropertyOp31
 70
     1
102
RTVSPropertyOp32
 70
     1
  0
XRECORD
  5
194A
102
{ACAD_REACTORS
330
1949
102
}
330
1949
100
AcDbXrecord
280
     1
102
RTVSPropertyOp0
 70
     1
102
RTVSPropertyOp1
 70
     1
102
RTVSPropertyOp2
 70
     1
102
RTVSPropertyOp3
 70
     1
102
RTVSPropertyOp4
 70
     1
102
RTVSPropertyOp5
 70
     1
102
RTVSPropertyOp6
 70
     1
102
RTVSPropertyOp7
 70
     1
102
RTVSPropertyOp8
 70
     1
102
RTVSPropertyOp9
 70
     1
102
RTVSPropertyOp10
 70
     1
102
RTVSPropertyOp11
 70
     1
102
RTVSPropertyOp12
 70
     1
102
RTVSPropertyOp13
 70
     1
102
RTVSPropertyOp14
 70
     1
102
RTVSPropertyOp15
 70
     1
102
RTVSPropertyOp16
 70
     1
102
RTVSPropertyOp17
 70
     1
102
RTVSPropertyOp18
 70
     1
102
RTVSPropertyOp19
 70
     1
102
RTVSPropertyOp20
 70
     1
102
RTVSPropertyOp21
 70
     1
102
RTVSPropertyOp22
 70
     1
102
RTVSPropertyOp23
 70
     1
102
RTVSPropertyOp24
 70
     1
102
RTVSPropertyOp25
 70
     1
102
RTVSPropertyOp26
 70
     1
102
RTVSPropertyOp27
 70
     1
102
RTVSPropertyOp28
 70
     1
102
RTVSPropertyOp29
 70
     1
102
RTVSPropertyOp30
 70
     1
102
RTVSPropertyOp31
 70
     1
102
RTVSPropertyOp32
 70
     1
  0
XRECORD
  5
1940
102
{ACAD_REACTORS
330
193F
102
}
330
193F
100
AcDbXrecord
280
     1
102
RTVSPropertyOp0
 70
     1
102
RTVSPropertyOp1
 70
     1
102
RTVSPropertyOp2
 70
     1
102
RTVSPropertyOp3
 70
     1
102
RTVSPropertyOp4
 70
     1
102
RTVSPropertyOp5
 70
     1
102
RTVSPropertyOp6
 70
     1
102
RTVSPropertyOp7
 70
     1
102
RTVSPropertyOp8
 70
     1
102
RTVSPropertyOp9
 70
     1
102
RTVSPropertyOp10
 70
     1
102
RTVSPropertyOp11
 70
     1
102
RTVSPropertyOp12
 70
     1
102
RTVSPropertyOp13
 70
     1
102
RTVSPropertyOp14
 70
     1
102
RTVSPropertyOp15
 70
     1
102
RTVSPropertyOp16
 70
     1
102
RTVSPropertyOp17
 70
     1
102
RTVSPropertyOp18
 70
     1
102
RTVSPropertyOp19
 70
     1
102
RTVSPropertyOp20
 70
     1
102
RTVSPropertyOp21
 70
     1
102
RTVSPropertyOp22
 70
     1
102
RTVSPropertyOp23
 70
     1
102
RTVSPropertyOp24
 70
     1
102
RTVSPropertyOp25
 70
     1
102
RTVSPropertyOp26
 70
     1
102
RTVSPropertyOp27
 70
     1
102
RTVSPropertyOp28
 70
     1
102
RTVSPropertyOp29
 70
     1
102
RTVSPropertyOp30
 70
     1
102
RTVSPropertyOp31
 70
     1
102
RTVSPropertyOp32
 70
     1
  0
XRECORD
  5
1934
102
{ACAD_REACTORS
330
1933
102
}
330
1933
100
AcDbXrecord
280
     1
102
RTVSPropertyOp0
 70
     1
102
RTVSPropertyOp1
 70
     1
102
RTVSPropertyOp2
 70
     1
102
RTVSPropertyOp3
 70
     1
102
RTVSPropertyOp4
 70
     1
102
RTVSPropertyOp5
 70
     1
102
RTVSPropertyOp6
 70
     1
102
RTVSPropertyOp7
 70
     1
102
RTVSPropertyOp8
 70
     1
102
RTVSPropertyOp9
 70
     1
102
RTVSPropertyOp10
 70
     1
102
RTVSPropertyOp11
 70
     1
102
RTVSPropertyOp12
 70
     1
102
RTVSPropertyOp13
 70
     1
102
RTVSPropertyOp14
 70
     1
102
RTVSPropertyOp15
 70
     1
102
RTVSPropertyOp16
 70
     1
102
RTVSPropertyOp17
 70
     1
102
RTVSPropertyOp18
 70
     1
102
RTVSPropertyOp19
 70
     1
102
RTVSPropertyOp20
 70
     1
102
RTVSPropertyOp21
 70
     1
102
RTVSPropertyOp22
 70
     1
102
RTVSPropertyOp23
 70
     1
102
RTVSPropertyOp24
 70
     1
102
RTVSPropertyOp25
 70
     1
102
RTVSPropertyOp26
 70
     1
102
RTVSPropertyOp27
 70
     1
102
RTVSPropertyOp28
 70
     1
102
RTVSPropertyOp29
 70
     1
102
RTVSPropertyOp30
 70
     1
102
RTVSPropertyOp31
 70
     1
102
RTVSPropertyOp32
 70
     1
  0
XRECORD
  5
194C
102
{ACAD_REACTORS
330
194B
102
}
330
194B
100
AcDbXrecord
280
     1
102
RTVSPropertyOp0
 70
     1
102
RTVSPropertyOp1
 70
     1
102
RTVSPropertyOp2
 70
     1
102
RTVSPropertyOp3
 70
     1
102
RTVSPropertyOp4
 70
     1
102
RTVSPropertyOp5
 70
     1
102
RTVSPropertyOp6
 70
     1
102
RTVSPropertyOp7
 70
     1
102
RTVSPropertyOp8
 70
     1
102
RTVSPropertyOp9
 70
     1
102
RTVSPropertyOp10
 70
     1
102
RTVSPropertyOp11
 70
     1
102
RTVSPropertyOp12
 70
     1
102
RTVSPropertyOp13
 70
     1
102
RTVSPropertyOp14
 70
     1
102
RTVSPropertyOp15
 70
     1
102
RTVSPropertyOp16
 70
     1
102
RTVSPropertyOp17
 70
     1
102
RTVSPropertyOp18
 70
     1
102
RTVSPropertyOp19
 70
     1
102
RTVSPropertyOp20
 70
     1
102
RTVSPropertyOp21
 70
     1
102
RTVSPropertyOp22
 70
     1
102
RTVSPropertyOp23
 70
     1
102
RTVSPropertyOp24
 70
     1
102
RTVSPropertyOp25
 70
     1
102
RTVSPropertyOp26
 70
     1
102
RTVSPropertyOp27
 70
     1
102
RTVSPropertyOp28
 70
     1
102
RTVSPropertyOp29
 70
     1
102
RTVSPropertyOp30
 70
     1
102
RTVSPropertyOp31
 70
     1
102
RTVSPropertyOp32
 70
     1
  0
ENDSEC
  0
EOF
