  0
SECTION
  2
HEADER
  9
$ACADVER
  1
AC1015
  9
$ACADMAINTVER
 70
    20
  9
$DWGCODEPAGE
  3
ANSI_932
  9
$INSBASE
 10
0.0
 20
0.0
 30
0.0
  9
$EXTMIN
 10
1430.870503421821
 20
10.2630152359563
 30
0.0
  9
$EXTMAX
 10
1622.870503421821
 20
291.3851439659564
 30
0.0
  9
$LIMMIN
 10
0.0
 20
0.0
  9
$LIMMAX
 10
12.0
 20
9.0
  9
$ORTHOMODE
 70
     1
  9
$REGENMODE
 70
     1
  9
$FILLMODE
 70
     1
  9
$QTEXTMODE
 70
     0
  9
$MIRRTEXT
 70
     0
  9
$LTSCALE
 40
1.0
  9
$ATTMODE
 70
     1
  9
$TEXTSIZE
 40
3.2
  9
$TRACEWID
 40
0.05
  9
$TEXTSTYLE
  7
高3.2
  9
$CLAYER
  8
0
  9
$CELTYPE
  6
ByLayer
  9
$CECOLOR
 62
   256
  9
$CELTSCALE
 40
1.0
  9
$DISPSILH
 70
     0
  9
$DIMSCALE
 40
1.0
  9
$DIMASZ
 40
2.5
  9
$DIMEXO
 40
0.25
  9
$DIMDLI
 40
0.2
  9
$DIMRND
 40
0.0
  9
$DIMDLE
 40
0.0
  9
$DIMEXE
 40
1.25
  9
$DIMTP
 40
0.0
  9
$DIMTM
 40
0.0
  9
$DIMTXT
 40
3.0
  9
$DIMCEN
 40
0.0
  9
$DIMTSZ
 40
0.0
  9
$DIMTOL
 70
     0
  9
$DIMLIM
 70
     0
  9
$DIMTIH
 70
     0
  9
$DIMTOH
 70
     0
  9
$DIMSE1
 70
     0
  9
$DIMSE2
 70
     0
  9
$DIMTAD
 70
     3
  9
$DIMZIN
 70
     8
  9
$DIMBLK
  1
Open30
  9
$DIMASO
 70
     1
  9
$DIMSHO
 70
     1
  9
$DIMPOST
  1

  9
$DIMAPOST
  1

  9
$DIMALT
 70
     0
  9
$DIMALTD
 70
     3
  9
$DIMALTF
 40
0.03937007874016
  9
$DIMLFAC
 40
4.0
  9
$DIMTOFL
 70
     1
  9
$DIMTVP
 40
0.0
  9
$DIMTIX
 70
     0
  9
$DIMSOXD
 70
     0
  9
$DIMSAH
 70
     0
  9
$DIMBLK1
  1

  9
$DIMBLK2
  1

  9
$DIMSTYLE
  2
1／4
  9
$DIMCLRD
 70
     0
  9
$DIMCLRE
 70
     0
  9
$DIMCLRT
 70
     4
  9
$DIMTFAC
 40
1.0
  9
$DIMGAP
 40
0.625
  9
$DIMJUST
 70
     0
  9
$DIMSD1
 70
     0
  9
$DIMSD2
 70
     0
  9
$DIMTOLJ
 70
     0
  9
$DIMTZIN
 70
     8
  9
$DIMALTZ
 70
     0
  9
$DIMALTTZ
 70
     0
  9
$DIMUPT
 70
     1
  9
$DIMDEC
 70
     2
  9
$DIMTDEC
 70
     2
  9
$DIMALTU
 70
     2
  9
$DIMALTTD
 70
     3
  9
$DIMTXSTY
  7
Standard
  9
$DIMAUNIT
 70
     0
  9
$DIMADEC
 70
     1
  9
$DIMALTRND
 40
0.0
  9
$DIMAZIN
 70
     2
  9
$DIMDSEP
 70
    46
  9
$DIMATFIT
 70
     0
  9
$DIMFRAC
 70
     0
  9
$DIMLDRBLK
  1
Open30
  9
$DIMLUNIT
 70
     2
  9
$DIMLWD
 70
    -2
  9
$DIMLWE
 70
    -2
  9
$DIMTMOVE
 70
     0
  9
$LUNITS
 70
     2
  9
$LUPREC
 70
     4
  9
$SKETCHINC
 40
0.1
  9
$FILLETRAD
 40
0.0
  9
$AUNITS
 70
     0
  9
$AUPREC
 70
     0
  9
$MENU
  1
.
  9
$ELEVATION
 40
0.0
  9
$PELEVATION
 40
0.0
  9
$THICKNESS
 40
0.0
  9
$LIMCHECK
 70
     0
  9
$CHAMFERA
 40
0.0
  9
$CHAMFERB
 40
0.0
  9
$CHAMFERC
 40
0.0
  9
$CHAMFERD
 40
0.0
  9
$SKPOLY
 70
     0
  9
$TDCREATE
 40
2459509.758320070
  9
$TDUCREATE
 40
2459509.383320070
  9
$TDUPDATE
 40
2459562.723161054
  9
$TDUUPDATE
 40
2459562.348161053
  9
$TDINDWG
 40
0.0053392245
  9
$TDUSRTIMER
 40
0.0053390162
  9
$USRTIMER
 70
     1
  9
$ANGBASE
 50
0.0
  9
$ANGDIR
 70
     0
  9
$PDMODE
 70
     0
  9
$PDSIZE
 40
0.0
  9
$PLINEWID
 40
0.0
  9
$SPLFRAME
 70
     0
  9
$SPLINETYPE
 70
     6
  9
$SPLINESEGS
 70
     8
  9
$HANDSEED
  5
15DF
  9
$SURFTAB1
 70
     6
  9
$SURFTAB2
 70
     6
  9
$SURFTYPE
 70
     6
  9
$SURFU
 70
     6
  9
$SURFV
 70
     6
  9
$UCSBASE
  2

  9
$UCSNAME
  2

  9
$UCSORG
 10
0.0
 20
0.0
 30
0.0
  9
$UCSXDIR
 10
1.0
 20
0.0
 30
0.0
  9
$UCSYDIR
 10
0.0
 20
1.0
 30
0.0
  9
$UCSORTHOREF
  2

  9
$UCSORTHOVIEW
 70
     0
  9
$UCSORGTOP
 10
0.0
 20
0.0
 30
0.0
  9
$UCSORGBOTTOM
 10
0.0
 20
0.0
 30
0.0
  9
$UCSORGLEFT
 10
0.0
 20
0.0
 30
0.0
  9
$UCSORGRIGHT
 10
0.0
 20
0.0
 30
0.0
  9
$UCSORGFRONT
 10
0.0
 20
0.0
 30
0.0
  9
$UCSORGBACK
 10
0.0
 20
0.0
 30
0.0
  9
$PUCSBASE
  2

  9
$PUCSNAME
  2

  9
$PUCSORG
 10
0.0
 20
0.0
 30
0.0
  9
$PUCSXDIR
 10
1.0
 20
0.0
 30
0.0
  9
$PUCSYDIR
 10
0.0
 20
1.0
 30
0.0
  9
$PUCSORTHOREF
  2

  9
$PUCSORTHOVIEW
 70
     0
  9
$PUCSORGTOP
 10
0.0
 20
0.0
 30
0.0
  9
$PUCSORGBOTTOM
 10
0.0
 20
0.0
 30
0.0
  9
$PUCSORGLEFT
 10
0.0
 20
0.0
 30
0.0
  9
$PUCSORGRIGHT
 10
0.0
 20
0.0
 30
0.0
  9
$PUCSORGFRONT
 10
0.0
 20
0.0
 30
0.0
  9
$PUCSORGBACK
 10
0.0
 20
0.0
 30
0.0
  9
$USERI1
 70
     0
  9
$USERI2
 70
     0
  9
$USERI3
 70
     0
  9
$USERI4
 70
     0
  9
$USERI5
 70
     0
  9
$USERR1
 40
0.0
  9
$USERR2
 40
0.0
  9
$USERR3
 40
0.0
  9
$USERR4
 40
0.0
  9
$USERR5
 40
0.0
  9
$WORLDVIEW
 70
     1
  9
$SHADEDGE
 70
     3
  9
$SHADEDIF
 70
    70
  9
$TILEMODE
 70
     1
  9
$MAXACTVP
 70
    64
  9
$PINSBASE
 10
0.0
 20
0.0
 30
0.0
  9
$PLIMCHECK
 70
     0
  9
$PEXTMIN
 10
0.0
 20
0.0
 30
0.0
  9
$PEXTMAX
 10
0.0
 20
0.0
 30
0.0
  9
$PLIMMIN
 10
0.0
 20
0.0
  9
$PLIMMAX
 10
12.0
 20
9.0
  9
$UNITMODE
 70
     0
  9
$VISRETAIN
 70
     1
  9
$PLINEGEN
 70
     0
  9
$PSLTSCALE
 70
     1
  9
$TREEDEPTH
 70
  3020
  9
$CMLSTYLE
  2
Standard
  9
$CMLJUST
 70
     0
  9
$CMLSCALE
 40
1.0
  9
$PROXYGRAPHICS
 70
     1
  9
$MEASUREMENT
 70
     1
  9
$CELWEIGHT
370
    -1
  9
$ENDCAPS
280
     0
  9
$JOINSTYLE
280
     0
  9
$LWDISPLAY
290
     0
  9
$INSUNITS
 70
     1
  9
$HYPERLINKBASE
  1

  9
$STYLESHEET
  1

  9
$XEDIT
290
     1
  9
$CEPSNTYPE
380
     0
  9
$PSTYLEMODE
290
     1
  9
$FINGERPRINTGUID
  2
{9A34C951-3971-4684-B392-112F42764654}
  9
$VERSIONGUID
  2
{2C97D783-19A1-4D7A-B419-292795C3EEFD}
  9
$EXTNAMES
290
     1
  9
$PSVPSCALE
 40
0.0
  9
$OLESTARTUP
290
     0
  0
ENDSEC
  0
SECTION
  2
CLASSES
  0
CLASS
  1
ACDBDICTIONARYWDFLT
  2
AcDbDictionaryWithDefault
  3
ObjectDBX Classes
 90
        0
280
     0
281
     0
  0
CLASS
  1
ACDBPLACEHOLDER
  2
AcDbPlaceHolder
  3
ObjectDBX Classes
 90
        0
280
     0
281
     0
  0
CLASS
  1
LAYOUT
  2
AcDbLayout
  3
ObjectDBX Classes
 90
        0
280
     0
281
     0
  0
CLASS
  1
DICTIONARYVAR
  2
AcDbDictionaryVar
  3
ObjectDBX Classes
 90
        0
280
     0
281
     0
  0
CLASS
  1
TABLESTYLE
  2
AcDbTableStyle
  3
ObjectDBX Classes
 90
     4095
280
     0
281
     0
  0
CLASS
  1
MATERIAL
  2
AcDbMaterial
  3
ObjectDBX Classes
 90
     1153
280
     0
281
     0
  0
CLASS
  1
VISUALSTYLE
  2
AcDbVisualStyle
  3
ObjectDBX Classes
 90
     4095
280
     0
281
     0
  0
CLASS
  1
SORTENTSTABLE
  2
AcDbSortentsTable
  3
ObjectDBX Classes
 90
        0
280
     0
281
     0
  0
CLASS
  1
DIMASSOC
  2
AcDbDimAssoc
  3
"AcDbDimAssoc|Product Desc:     AcDim ARX App For Dimension|Company:          Autodesk, Inc.|WEB Address:      www.autodesk.com"
 90
        0
280
     0
281
     0
  0
CLASS
  1
SCALE
  2
AcDbScale
  3
ObjectDBX Classes
 90
     1153
280
     0
281
     0
  0
CLASS
  1
MLEADERSTYLE
  2
AcDbMLeaderStyle
  3
ACDB_MLEADERSTYLE_CLASS
 90
     4095
280
     0
281
     0
  0
CLASS
  1
CELLSTYLEMAP
  2
AcDbCellStyleMap
  3
ObjectDBX Classes
 90
     1152
280
     0
281
     0
  0
CLASS
  1
AEC_REFEDIT_STATUS_TRACKER
  2
AecDbRefEditStatusTracker
  3
AecArchBase60|Product Desc: Autodesk Architectural Desktop 2007 |Company: Autodesk,Inc. |WEB Address: www.autodesk.com
 90
      129
280
     0
281
     0
  0
CLASS
  1
NPOCOLLECTION
  2
AcDbImpNonPersistentObjectsCollection
  3
ObjectDBX Classes
 90
     1153
280
     0
281
     0
  0
ENDSEC
  0
SECTION
  2
TABLES
  0
TABLE
  2
VPORT
  5
8
102
{ACAD_XDICTIONARY
360
829
102
}
330
0
100
AcDbSymbolTable
 70
     1
  0
VPORT
  5
94
330
8
100
AcDbSymbolTableRecord
100
AcDbViewportTableRecord
  2
*Active
 70
     0
 10
0.0
 20
0.0
 11
1.0
 21
1.0
 12
1567.617484487288
 22
163.8005186518183
 13
0.0
 23
0.0
 14
0.5
 24
0.5
 15
0.5
 25
0.5
 16
0.0
 26
0.0
 36
1.0
 17
0.0
 27
0.0
 37
0.0
 40
834.6393564062985
 41
0.925392670157068
 42
50.0
 43
0.0
 44
0.0
 50
0.0
 51
0.0
 71
     0
 72
  1000
 73
     1
 74
     2
 75
     0
 76
     0
 77
     0
 78
     0
281
     0
 65
     1
110
0.0
120
0.0
130
0.0
111
1.0
121
0.0
131
0.0
112
0.0
122
1.0
132
0.0
 79
     0
146
0.0
  0
ENDTAB
  0
TABLE
  2
LTYPE
  5
5
330
0
100
AcDbSymbolTable
 70
     4
  0
LTYPE
  5
14
330
5
100
AcDbSymbolTableRecord
100
AcDbLinetypeTableRecord
  2
ByBlock
 70
     0
  3

 72
    65
 73
     0
 40
0.0
  0
LTYPE
  5
15
330
5
100
AcDbSymbolTableRecord
100
AcDbLinetypeTableRecord
  2
ByLayer
 70
     0
  3

 72
    65
 73
     0
 40
0.0
  0
LTYPE
  5
16
330
5
100
AcDbSymbolTableRecord
100
AcDbLinetypeTableRecord
  2
Continuous
 70
     0
  3
Solid line
 72
    65
 73
     0
 40
0.0
  0
LTYPE
  5
148
330
5
100
AcDbSymbolTableRecord
100
AcDbLinetypeTableRecord
  2
CENTER
 70
     0
  3
Center ____ _ ____ _ ____ _ ____ _ ____ _ ____
 72
    65
 73
     4
 40
50.8
 49
31.75
 74
     0
 49
-6.349999999999998
 74
     0
 49
6.349999999999998
 74
     0
 49
-6.349999999999998
 74
     0
  0
LTYPE
  5
149
330
5
100
AcDbSymbolTableRecord
100
AcDbLinetypeTableRecord
  2
HIDDEN
 70
     0
  3
Hidden __ __ __ __ __ __ __ __ __ __ __ __ __ __
 72
    65
 73
     2
 40
9.524999999999996
 49
6.349999999999998
 74
     0
 49
-3.174999999999998
 74
     0
  0
LTYPE
  5
14A
330
5
100
AcDbSymbolTableRecord
100
AcDbLinetypeTableRecord
  2
PHANTOM
 70
     0
  3
Phantom ______  __  __  ______  __  __  ______
 72
    65
 73
     6
 40
63.5
 49
31.75
 74
     0
 49
-6.349999999999998
 74
     0
 49
6.349999999999998
 74
     0
 49
-6.349999999999998
 74
     0
 49
6.349999999999998
 74
     0
 49
-6.349999999999998
 74
     0
  0
ENDTAB
  0
TABLE
  2
LAYER
  5
2
102
{ACAD_XDICTIONARY
360
DD
102
}
330
0
100
AcDbSymbolTable
 70
     2
  0
LAYER
  5
10
102
{ACAD_XDICTIONARY
360
81D
102
}
330
2
100
AcDbSymbolTableRecord
100
AcDbLayerTableRecord
  2
0
 70
     0
 62
     7
  6
Continuous
370
    -3
390
F
  0
LAYER
  5
D8
330
2
100
AcDbSymbolTableRecord
100
AcDbLayerTableRecord
  2
Defpoints
 70
     0
 62
     7
  6
Continuous
290
     0
370
    -3
390
F
  0
ENDTAB
  0
TABLE
  2
STYLE
  5
3
330
0
100
AcDbSymbolTable
 70
     6
  0
STYLE
  5
11
330
3
100
AcDbSymbolTableRecord
100
AcDbTextStyleTableRecord
  2
Standard
 70
     0
 40
0.0
 41
1.0
 50
0.0
 71
     0
 42
0.2
  3
txt.shx
  4
bigfont.shx
  0
STYLE
  5
11D
330
3
100
AcDbSymbolTableRecord
100
AcDbTextStyleTableRecord
  2
高3.2
 70
     0
 40
3.2
 41
1.0
 50
0.0
 71
     0
 42
3.2
  3
txt.shx
  4
bigfont.shx
  0
STYLE
  5
11E
330
3
100
AcDbSymbolTableRecord
100
AcDbTextStyleTableRecord
  2
高6.3
 70
     0
 40
6.299999999999998
 41
1.0
 50
0.0
 71
     0
 42
6.299999999999998
  3
txt.shx
  4
bigfont.shx
  0
STYLE
  5
11F
330
3
100
AcDbSymbolTableRecord
100
AcDbTextStyleTableRecord
  2
高2.5
 70
     0
 40
2.5
 41
1.0
 50
0.0
 71
     0
 42
0.2
  3
txt.shx
  4
bigfont.shx
  0
STYLE
  5
146
330
3
100
AcDbSymbolTableRecord
100
AcDbTextStyleTableRecord
  2
高4.5
 70
     0
 40
4.5
 41
1.0
 50
0.0
 71
     0
 42
6.299999999999998
  3
txt.shx
  4
bigfont.shx
  0
STYLE
  5
171
330
3
100
AcDbSymbolTableRecord
100
AcDbTextStyleTableRecord
  2
高2
 70
     0
 40
2.0
 41
1.0
 50
0.0
 71
     0
 42
6.299999999999998
  3
txt.shx
  4
bigfont.shx
  0
ENDTAB
  0
TABLE
  2
VIEW
  5
6
330
0
100
AcDbSymbolTable
 70
     0
  0
ENDTAB
  0
TABLE
  2
UCS
  5
7
330
0
100
AcDbSymbolTable
 70
     0
  0
ENDTAB
  0
TABLE
  2
APPID
  5
9
330
0
100
AcDbSymbolTable
 70
     9
  0
APPID
  5
12
330
9
100
AcDbSymbolTableRecord
100
AcDbRegAppTableRecord
  2
ACAD
 70
     0
  0
APPID
  5
DC
330
9
100
AcDbSymbolTableRecord
100
AcDbRegAppTableRecord
  2
ACAD_DSTYLE_DIMJOGGED_JOGANGLE_SYMBOL
 70
     0
  0
APPID
  5
566
330
9
100
AcDbSymbolTableRecord
100
AcDbRegAppTableRecord
  2
ACAD_EXEMPT_FROM_CAD_STANDARDS
 70
     0
  0
APPID
  5
647
330
9
100
AcDbSymbolTableRecord
100
AcDbRegAppTableRecord
  2
ACAD_DSTYLE_DIMJAG
 70
     0
  0
APPID
  5
648
330
9
100
AcDbSymbolTableRecord
100
AcDbRegAppTableRecord
  2
ACAD_DSTYLE_DIMBREAK
 70
     0
  0
APPID
  5
649
330
9
100
AcDbSymbolTableRecord
100
AcDbRegAppTableRecord
  2
ACAD_DSTYLE_DIMTALN
 70
     0
  0
APPID
  5
858
330
9
100
AcDbSymbolTableRecord
100
AcDbRegAppTableRecord
  2
ACAD_DSTYLE_DIMARC_LENGTH_SYMBOL
 70
     0
  0
APPID
  5
859
330
9
100
AcDbSymbolTableRecord
100
AcDbRegAppTableRecord
  2
ACAD_DSTYLE_DIMEXT_LENGTH
 70
     0
  0
APPID
  5
86E
330
9
100
AcDbSymbolTableRecord
100
AcDbRegAppTableRecord
  2
ACAD_MLEADERVER
 70
     0
  0
ENDTAB
  0
TABLE
  2
DIMSTYLE
  5
A
330
0
100
AcDbSymbolTable
 70
    10
100
AcDbDimStyleTable
 71
     6
340
644
340
D9
340
DB
340
DA
340
127
340
129
  0
DIMSTYLE
105
D9
330
A
100
AcDbSymbolTableRecord
100
AcDbDimStyleTableRecord
  2
1：1
 70
     0
 41
2.5
 42
0.25
 43
0.2
 44
1.25
 73
     0
 74
     0
 77
     3
 78
     8
 79
     2
140
3.0
141
0.0
143
0.03937007874016
147
0.625
171
     3
172
     1
178
     4
179
     1
271
     2
272
     2
274
     3
283
     0
284
     8
288
     1
289
     0
340
11
341
C6
342
C6
1001
ACAD_DSTYLE_DIMARC_LENGTH_SYMBOL
1070
   379
1070
     2
1001
ACAD_DSTYLE_DIMEXT_LENGTH
1070
   378
1040
1.25
1001
ACAD_DSTYLE_DIMJOGGED_JOGANGLE_SYMBOL
1070
   384
1040
1.570796326794896
  0
DIMSTYLE
105
DA
330
A
100
AcDbSymbolTableRecord
100
AcDbDimStyleTableRecord
  2
2：1
 70
     0
 41
2.5
 42
0.25
 43
0.2
 44
1.25
 73
     0
 74
     0
 77
     3
 78
     8
 79
     2
140
3.0
141
0.0
143
0.03937007874016
144
0.5
147
0.625
171
     3
172
     1
178
     4
179
     1
271
     2
272
     2
274
     3
283
     0
284
     8
288
     1
289
     0
340
11
341
C6
342
C6
1001
ACAD_DSTYLE_DIMARC_LENGTH_SYMBOL
1070
   379
1070
     2
1001
ACAD_DSTYLE_DIMEXT_LENGTH
1070
   378
1040
1.25
1001
ACAD_DSTYLE_DIMJOGGED_JOGANGLE_SYMBOL
1070
   384
1040
1.570796326794896
  0
DIMSTYLE
105
DB
330
A
100
AcDbSymbolTableRecord
100
AcDbDimStyleTableRecord
  2
5：1
 70
     0
 41
2.5
 42
0.25
 43
0.2
 44
1.25
 73
     0
 74
     0
 77
     3
 78
     8
 79
     2
140
3.0
141
0.0
143
0.03937007874016
144
0.2
147
0.625
171
     3
172
     1
178
     4
179
     1
271
     2
272
     2
274
     3
283
     0
284
     8
288
     1
289
     0
340
11
341
C6
342
C6
1001
ACAD_DSTYLE_DIMARC_LENGTH_SYMBOL
1070
   379
1070
     2
1001
ACAD_DSTYLE_DIMEXT_LENGTH
1070
   378
1040
1.25
1001
ACAD_DSTYLE_DIMJOGGED_JOGANGLE_SYMBOL
1070
   384
1040
1.570796326794896
  0
DIMSTYLE
105
127
330
A
100
AcDbSymbolTableRecord
100
AcDbDimStyleTableRecord
  2
10：1
 70
     0
 41
2.5
 42
0.25
 43
0.2
 44
1.25
 73
     0
 74
     0
 77
     3
 78
     8
 79
     2
140
3.0
141
0.0
143
0.03937007874016
144
0.1
147
0.625
171
     3
172
     1
178
     4
179
     1
271
     2
272
     2
274
     3
283
     0
284
     8
288
     1
289
     0
340
11
341
C6
342
C6
1001
ACAD_DSTYLE_DIMARC_LENGTH_SYMBOL
1070
   379
1070
     2
1001
ACAD_DSTYLE_DIMEXT_LENGTH
1070
   378
1040
1.25
1001
ACAD_DSTYLE_DIMJOGGED_JOGANGLE_SYMBOL
1070
   384
1040
1.570796326794896
  0
DIMSTYLE
105
128
330
A
100
AcDbSymbolTableRecord
100
AcDbDimStyleTableRecord
  2
1／2
 70
     0
 41
2.5
 42
0.25
 43
0.2
 44
1.25
 73
     0
 74
     0
 77
     3
 78
     8
 79
     2
140
3.0
141
0.0
143
0.03937007874016
144
2.0
147
0.625
171
     3
172
     1
178
     4
179
     1
271
     2
272
     2
274
     3
283
     0
284
     8
288
     1
289
     0
340
11
341
C6
342
C6
1001
ACAD_DSTYLE_DIMARC_LENGTH_SYMBOL
1070
   379
1070
     2
1001
ACAD_DSTYLE_DIMEXT_LENGTH
1070
   378
1040
1.25
1001
ACAD_DSTYLE_DIMJOGGED_JOGANGLE_SYMBOL
1070
   384
1040
1.570796326794896
  0
DIMSTYLE
105
129
330
A
100
AcDbSymbolTableRecord
100
AcDbDimStyleTableRecord
  2
1／5
 70
     0
 41
2.5
 42
0.25
 43
0.2
 44
1.25
 73
     0
 74
     0
 77
     3
 78
     8
 79
     2
140
3.0
141
0.0
143
0.03937007874016
144
5.0
147
0.625
171
     3
172
     1
178
     4
179
     1
271
     2
272
     2
274
     3
283
     0
284
     8
288
     1
289
     0
340
11
341
C6
342
C6
1001
ACAD_DSTYLE_DIMARC_LENGTH_SYMBOL
1070
   379
1070
     2
1001
ACAD_DSTYLE_DIMEXT_LENGTH
1070
   378
1040
1.25
1001
ACAD_DSTYLE_DIMJOGGED_JOGANGLE_SYMBOL
1070
   384
1040
1.570796326794896
  0
DIMSTYLE
105
12A
330
A
100
AcDbSymbolTableRecord
100
AcDbDimStyleTableRecord
  2
1／10
 70
     0
 41
2.5
 42
0.25
 43
0.2
 44
1.25
 73
     0
 74
     0
 77
     3
 78
     8
 79
     2
140
3.0
141
0.0
143
0.03937007874016
144
10.0
147
0.625
171
     3
172
     1
178
     4
179
     1
271
     2
272
     2
274
     3
283
     0
284
     8
288
     1
289
     0
340
11
341
C6
342
C6
1001
ACAD_DSTYLE_DIMARC_LENGTH_SYMBOL
1070
   379
1070
     2
1001
ACAD_DSTYLE_DIMEXT_LENGTH
1070
   378
1040
1.25
1001
ACAD_DSTYLE_DIMJOGGED_JOGANGLE_SYMBOL
1070
   384
1040
1.570796326794896
  0
DIMSTYLE
105
644
330
A
100
AcDbSymbolTableRecord
100
AcDbDimStyleTableRecord
  2
1／4
 70
     0
 41
2.5
 42
0.25
 43
0.2
 44
1.25
 73
     0
 74
     0
 77
     3
 78
     8
 79
     2
140
3.0
141
0.0
143
0.03937007874016
144
4.0
147
0.625
171
     3
172
     1
178
     4
179
     1
271
     2
272
     2
274
     3
283
     0
284
     8
288
     1
289
     0
340
11
341
C6
342
C6
1001
ACAD_DSTYLE_DIMARC_LENGTH_SYMBOL
1070
   379
1070
     2
1001
ACAD_DSTYLE_DIMEXT_LENGTH
1070
   378
1040
1.25
1001
ACAD_DSTYLE_DIMJOGGED_JOGANGLE_SYMBOL
1070
   384
1040
1.570796326794896
  0
DIMSTYLE
105
645
330
A
100
AcDbSymbolTableRecord
100
AcDbDimStyleTableRecord
  2
1／3
 70
     0
 41
2.5
 42
0.25
 43
0.2
 44
1.25
 73
     0
 74
     0
 77
     3
 78
     8
 79
     2
140
3.0
141
0.0
143
0.03937007874016
144
3.0
147
0.625
171
     3
172
     1
178
     4
179
     1
271
     2
272
     2
274
     3
283
     0
284
     8
288
     1
289
     0
340
11
341
C6
342
C6
1001
ACAD_DSTYLE_DIMARC_LENGTH_SYMBOL
1070
   379
1070
     2
1001
ACAD_DSTYLE_DIMEXT_LENGTH
1070
   378
1040
1.25
1001
ACAD_DSTYLE_DIMJOGGED_JOGANGLE_SYMBOL
1070
   384
1040
1.570796326794896
  0
DIMSTYLE
105
646
330
A
100
AcDbSymbolTableRecord
100
AcDbDimStyleTableRecord
  2
FREE
 70
     0
 41
2.5
 42
0.25
 43
0.2
 44
1.25
 73
     0
 74
     0
 77
     3
 78
     8
 79
     2
140
3.0
141
0.0
143
0.03937007874016
147
0.625
171
     3
172
     1
178
     4
179
     1
271
     2
272
     2
274
     3
283
     0
284
     8
288
     1
289
     0
340
11
341
C6
342
C6
1001
ACAD_DSTYLE_DIMBREAK
1070
   391
1040
3.75
1001
ACAD_DSTYLE_DIMJAG
1070
   388
1040
1.5
1001
ACAD_DSTYLE_DIMTALN
1070
   392
1070
     0
1001
ACAD_DSTYLE_DIMARC_LENGTH_SYMBOL
1070
   379
1070
     2
1001
ACAD_DSTYLE_DIMEXT_LENGTH
1070
   378
1040
1.25
1001
ACAD_DSTYLE_DIMJOGGED_JOGANGLE_SYMBOL
1070
   384
1040
1.570796326794896
  0
ENDTAB
  0
TABLE
  2
BLOCK_RECORD
  5
1
330
0
100
AcDbSymbolTable
 70
    13
  0
BLOCK_RECORD
  5
1F
102
{ACAD_XDICTIONARY
360
31A
102
}
330
1
100
AcDbSymbolTableRecord
100
AcDbBlockTableRecord
  2
*Model_Space
340
22
  0
BLOCK_RECORD
  5
58
330
1
100
AcDbSymbolTableRecord
100
AcDbBlockTableRecord
  2
*Paper_Space
340
59
  0
BLOCK_RECORD
  5
5D
330
1
100
AcDbSymbolTableRecord
100
AcDbBlockTableRecord
  2
*Paper_Space0
340
5E
  0
BLOCK_RECORD
  5
C6
330
1
100
AcDbSymbolTableRecord
100
AcDbBlockTableRecord
  2
_Open30
340
0
102
{BLKREFS
331
BD2
331
BD3
331
BAC
331
BAD
331
BB8
331
BB9
331
BC4
331
BC5
331
1439
331
143A
331
1442
331
1443
331
144B
331
144C
331
145E
331
145F
331
14AC
331
14AD
102
}
  0
BLOCK_RECORD
  5
ACA
102
{ACAD_XDICTIONARY
360
B94
102
}
330
1
100
AcDbSymbolTableRecord
100
AcDbBlockTableRecord
  2
A$C3C162290
340
0
1001
ACAD
1000
DesignCenter Data
1002
{
1070
     1
1070
     1
1002
}
  0
BLOCK_RECORD
  5
BA3
330
1
100
AcDbSymbolTableRecord
100
AcDbBlockTableRecord
  2
_DotSmall
340
0
  0
BLOCK_RECORD
  5
BA7
330
1
100
AcDbSymbolTableRecord
100
AcDbBlockTableRecord
  2
*D4
340
0
  0
BLOCK_RECORD
  5
BB3
330
1
100
AcDbSymbolTableRecord
100
AcDbBlockTableRecord
  2
*D5
340
0
  0
BLOCK_RECORD
  5
BBF
330
1
100
AcDbSymbolTableRecord
100
AcDbBlockTableRecord
  2
*D6
340
0
  0
BLOCK_RECORD
  5
BCB
330
1
100
AcDbSymbolTableRecord
100
AcDbBlockTableRecord
  2
*D7
340
0
  0
BLOCK_RECORD
  5
123E
330
1
100
AcDbSymbolTableRecord
100
AcDbBlockTableRecord
  2
*D8
340
0
  0
BLOCK_RECORD
  5
124C
330
1
100
AcDbSymbolTableRecord
100
AcDbBlockTableRecord
  2
*D9
340
0
  0
BLOCK_RECORD
  5
1258
330
1
100
AcDbSymbolTableRecord
100
AcDbBlockTableRecord
  2
*D10
340
0
  0
BLOCK_RECORD
  5
1264
330
1
100
AcDbSymbolTableRecord
100
AcDbBlockTableRecord
  2
*D11
340
0
  0
BLOCK_RECORD
  5
1465
330
1
100
AcDbSymbolTableRecord
100
AcDbBlockTableRecord
  2
*D12
340
0
  0
ENDTAB
  0
ENDSEC
  0
SECTION
  2
BLOCKS
  0
BLOCK
  5
20
330
1F
100
AcDbEntity
  8
0
100
AcDbBlockBegin
  2
*Model_Space
 70
     0
 10
0.0
 20
0.0
 30
0.0
  3
*Model_Space
  1

  0
ENDBLK
  5
21
330
1F
100
AcDbEntity
  8
0
100
AcDbBlockEnd
  0
BLOCK
  5
5A
330
58
100
AcDbEntity
 67
     1
  8
0
100
AcDbBlockBegin
  2
*Paper_Space
 70
     0
 10
0.0
 20
0.0
 30
0.0
  3
*Paper_Space
  1

  0
ENDBLK
  5
5B
330
58
100
AcDbEntity
 67
     1
  8
0
100
AcDbBlockEnd
  0
BLOCK
  5
5F
330
5D
100
AcDbEntity
 67
     1
  8
0
100
AcDbBlockBegin
  2
*Paper_Space0
 70
     0
 10
0.0
 20
0.0
 30
0.0
  3
*Paper_Space0
  1

  0
ENDBLK
  5
60
330
5D
100
AcDbEntity
 67
     1
  8
0
100
AcDbBlockEnd
  0
BLOCK
  5
C7
330
C6
100
AcDbEntity
  8
0
100
AcDbBlockBegin
  2
_Open30
 70
     0
 10
0.0
 20
0.0
 30
0.0
  3
_Open30
  1

  0
LINE
  5
C8
330
C6
100
AcDbEntity
  8
0
  6
ByBlock
 62
     0
370
    -2
100
AcDbLine
 10
-1.0
 20
0.267949
 30
0.0
 11
0.0
 21
0.0
 31
0.0
  0
LINE
  5
C9
330
C6
100
AcDbEntity
  8
0
  6
ByBlock
 62
     0
370
    -2
100
AcDbLine
 10
0.0
 20
0.0
 30
0.0
 11
-1.0
 21
-0.267949
 31
0.0
  0
LINE
  5
CA
330
C6
100
AcDbEntity
  8
0
  6
ByBlock
 62
     0
370
    -2
100
AcDbLine
 10
0.0
 20
0.0
 30
0.0
 11
-1.0
 21
0.0
 31
0.0
  0
ENDBLK
  5
CB
330
C6
100
AcDbEntity
  8
0
100
AcDbBlockEnd
  0
BLOCK
  5
B96
330
ACA
100
AcDbEntity
  8
0
100
AcDbBlockBegin
  2
A$C3C162290
 70
     0
 10
0.0
 20
0.0
 30
0.0
  3
A$C3C162290
  1

  0
LINE
  5
ACB
330
ACA
100
AcDbEntity
  8
0
 62
     3
100
AcDbLine
 10
8.487926473143486
 20
138.4999995915839
 30
0.0
 11
7.999999643143496
 21
138.4999995915839
 31
0.0
  0
LINE
  5
ACC
330
ACA
100
AcDbEntity
  8
0
 62
     3
100
AcDbLine
 10
19.9999996431435
 20
276.9999995915839
 30
0.0
 11
19.9999996431435
 21
-0.0000004084160992
 31
0.0
  0
LINE
  5
ACD
330
ACA
100
AcDbEntity
  8
0
 62
   254
100
AcDbLine
 10
-0.0000003568565035
 20
286.9999995915839
 30
0.0
 11
-0.0000003568565035
 21
-0.0000004084160992
 31
0.0
  0
LINE
  5
ACE
330
ACA
100
AcDbEntity
  8
0
 62
     3
100
AcDbLine
 10
199.9999996431435
 20
-0.0000004084160992
 30
0.0
 11
199.9999996431435
 21
276.9999995915839
 31
0.0
  0
LINE
  5
ACF
330
ACA
100
AcDbEntity
  8
0
 62
     3
100
AcDbLine
 10
19.9999996431435
 20
-0.0000004084160992
 30
0.0
 11
199.9999996431435
 21
-0.0000004084160992
 31
0.0
  0
LINE
  5
AD0
330
ACA
100
AcDbEntity
  8
0
 62
     3
100
AcDbLine
 10
85.32766227314345
 20
276.9999995915839
 30
0.0
 11
199.9999996431435
 21
276.9999995915839
 31
0.0
  0
LINE
  5
AD1
330
ACA
100
AcDbEntity
  8
0
 62
   254
100
AcDbLine
 10
-0.0000003568565035
 20
286.9999995915839
 30
0.0
 11
199.9999996431435
 21
286.9999995915839
 31
0.0
  0
LINE
  5
AD2
330
ACA
100
AcDbEntity
  8
0
 62
     3
100
AcDbLine
 10
51.91491575314353
 20
276.9999995915839
 30
0.0
 11
19.9999996431435
 21
276.9999995915839
 31
0.0
  0
LINE
  5
AD3
330
ACA
100
AcDbEntity
  8
0
 62
     3
100
AcDbLine
 10
147.9999996431435
 20
-0.0000004084160992
 30
0.0
 11
147.9999996431435
 21
39.99999959158391
 31
0.0
  0
LINE
  5
AD4
330
ACA
100
AcDbEntity
  8
0
 62
     3
100
AcDbLine
 10
160.9999996431435
 20
9.9999995915839
 30
0.0
 11
160.9999996431435
 21
37.9999995915839
 31
0.0
  0
LINE
  5
AD5
330
ACA
100
AcDbEntity
  8
0
 62
     3
100
AcDbLine
 10
120.9999996431435
 20
9.9999995915839
 30
0.0
 11
120.9999996431435
 21
23.99999959158389
 31
0.0
  0
LINE
  5
AD6
330
ACA
100
AcDbEntity
  8
0
 62
     3
100
AcDbLine
 10
130.9999996431435
 20
23.99999959158389
 30
0.0
 11
130.9999996431435
 21
-0.0000004084160992
 31
0.0
  0
LINE
  5
AD7
330
ACA
100
AcDbEntity
  8
0
 62
     3
100
AcDbLine
 10
101.9999996431435
 20
39.99999959158389
 30
0.0
 11
101.9999996431435
 21
16.99999959158391
 31
0.0
  0
LINE
  5
AD8
330
ACA
100
AcDbEntity
  8
0
 62
     3
100
AcDbLine
 10
160.9999996431435
 20
37.9999995915839
 30
0.0
 11
160.9999996431435
 21
39.99999959158391
 31
0.0
  0
LINE
  5
AD9
330
ACA
100
AcDbEntity
  8
0
 62
     3
100
AcDbLine
 10
173.9999996431435
 20
16.99999959158391
 30
0.0
 11
173.9999996431435
 21
39.99999959158391
 31
0.0
  0
LINE
  5
ADA
330
ACA
100
AcDbEntity
  8
0
 62
     3
100
AcDbLine
 10
199.9999996431435
 20
39.99999959158391
 30
0.0
 11
88.75456500314362
 21
39.99999959158392
 31
0.0
  0
LINE
  5
ADB
330
ACA
100
AcDbEntity
  8
0
 62
     3
100
AcDbLine
 10
199.9999996431435
 20
30.9999995915839
 30
0.0
 11
88.75456500314353
 21
30.99999959158391
 31
0.0
  0
LINE
  5
ADC
330
ACA
100
AcDbEntity
  8
0
 62
     3
100
AcDbLine
 10
199.9999996431435
 20
16.99999959158391
 30
0.0
 11
88.75456500314353
 21
16.99999959158391
 31
0.0
  0
LINE
  5
ADD
330
ACA
100
AcDbEntity
  8
0
 62
     3
100
AcDbLine
 10
199.9999996431435
 20
9.9999995915839
 30
0.0
 11
88.69655714314342
 21
9.9999995915839
 31
0.0
  0
LINE
  5
ADE
330
ACA
100
AcDbEntity
  8
0
 62
     3
100
AcDbLine
 10
186.9999996431435
 20
16.99999959158391
 30
0.0
 11
186.9999996431435
 21
39.99999959158391
 31
0.0
  0
LINE
  5
ADF
330
ACA
100
AcDbEntity
  8
0
 62
     3
100
AcDbLine
 10
88.75456500314353
 20
39.99999959158392
 30
0.0
 11
88.75456500314353
 21
-0.0000004084160992
 31
0.0
  0
LINE
  5
AE0
330
ACA
100
AcDbEntity
  8
0
 62
     3
100
AcDbLine
 10
147.9999996431435
 20
23.99999959158389
 30
0.0
 11
88.75456500314353
 21
23.99999959158389
 31
0.0
  0
LINE
  5
AE1
330
ACA
100
AcDbEntity
  8
0
 62
     3
100
AcDbLine
 10
131.2783245731434
 20
4.832860851583888
 30
0.0
 11
147.9999996431435
 21
4.832860851583888
 31
0.0
  0
TEXT
  5
AE2
330
ACA
100
AcDbEntity
  8
0
 62
     3
100
AcDbText
 10
132.1643250564592
 20
19.07309644494925
 30
0.0
 40
2.5
  1
******
  7
高2.5
100
AcDbText
  0
TEXT
  5
AE3
330
ACA
100
AcDbEntity
  8
0
 62
     3
100
AcDbText
 10
103.1963683383957
 20
19.2978139965678
 30
0.0
 40
2.5
  1
*****
  7
高2.5
100
AcDbText
  0
TEXT
  5
AE4
330
ACA
100
AcDbEntity
  8
0
 62
     3
100
AcDbText
 10
103.4612760930931
 20
32.31224911534179
 30
0.0
 40
4.5
  1
**********
  7
高4.5
100
AcDbText
1001
ACAD
1000
ACAD_MTEXT_DEFINED_HEIGHT_BEGIN
1070
    46
1040
0.0
1000
ACAD_MTEXT_DEFINED_HEIGHT_END
  0
TEXT
  5
AE5
330
ACA
100
AcDbEntity
  8
0
 62
     3
100
AcDbText
 10
190.0655887366175
 20
36.51369169028749
 30
0.0
 40
2.0
  1
DEF
  7
高2
100
AcDbText
  0
TEXT
  5
AE6
330
ACA
100
AcDbEntity
  8
0
 62
     3
100
AcDbText
 10
176.1264903829093
 20
36.5136916902874
 30
0.0
 40
2.0
  1
DESN
  7
高2
100
AcDbText
  0
TEXT
  5
AE7
330
ACA
100
AcDbEntity
  8
0
 62
     3
100
AcDbText
 10
149.8721234429091
 20
36.51369169028749
 30
0.0
 40
2.0
  1
APPD
  7
高2
100
AcDbText
  0
TEXT
  5
AE8
330
ACA
100
AcDbEntity
  8
0
 62
     3
100
AcDbText
 10
162.9848595431434
 20
36.51369169028751
 30
0.0
 40
2.0
  1
CHCK
  7
高2
100
AcDbText
  0
TEXT
  5
AE9
330
ACA
100
AcDbEntity
  8
0
 62
     3
100
AcDbText
 10
121.9271652822962
 20
14.16839841481461
 30
0.0
 40
2.0
  1
SCALE
 41
0.8
  7
高2
100
AcDbText
  0
TEXT
  5
AEA
330
ACA
100
AcDbEntity
  8
0
 62
     3
100
AcDbText
 10
90.43914370618962
 20
14.16839841481463
 30
0.0
 40
2.0
  1
3AD　ANGLE
 41
1.5
  7
高2
100
AcDbText
  0
TEXT
  5
AEB
330
ACA
100
AcDbEntity
  8
0
 62
     3
100
AcDbText
 10
121.1965709731449
 20
20.91993648377173
 30
0.0
 40
2.0
  1
REMARKS
 41
0.7
  7
高2
100
AcDbText
  0
TEXT
  5
AEC
330
ACA
100
AcDbEntity
  8
0
 62
     3
100
AcDbText
 10
90.22223535314344
 20
20.99999959158391
 30
0.0
 40
2.0
  1
MATERIAL
 41
0.7
  7
高2
100
AcDbText
  0
TEXT
  5
AED
330
ACA
100
AcDbEntity
  8
0
 62
     3
100
AcDbText
 10
90.7987225558976
 20
27.99999959158389
 30
0.0
 40
2.0
  1
MODEL
  7
高2
100
AcDbText
  0
TEXT
  5
AEE
330
ACA
100
AcDbEntity
  8
0
 62
     3
100
AcDbText
 10
90.43564343722879
 20
36.70702094218292
 30
0.0
 40
2.0
  1
CONPONENTS
 41
0.5
  7
高2
100
AcDbText
  0
TEXT
  5
AEF
330
ACA
100
AcDbEntity
  8
0
 62
     3
100
AcDbText
 10
103.1427589083956
 20
25.08748071939586
 30
0.0
 40
4.5
  1
********
  7
高4.5
100
AcDbText
  0
TEXT
  5
AF0
330
ACA
100
AcDbEntity
  8
0
 62
     3
100
AcDbText
 10
151.065045373762
 20
1.231861447008212
 30
0.0
 40
6.299999999999998
  1
*-********
 41
0.6
  7
高6.3
100
AcDbText
1001
ACAD
1000
ACAD_MTEXT_DEFINED_HEIGHT_BEGIN
1070
    46
1040
0.0
1000
ACAD_MTEXT_DEFINED_HEIGHT_END
  0
TEXT
  5
AF1
330
ACA
100
AcDbEntity
  8
0
 62
     3
100
AcDbText
 10
164.563509393473
 20
11.1008887498169
 30
0.0
 40
3.2
  1
******
  7
高3.2
100
AcDbText
1001
ACAD
1000
ACAD_MTEXT_DEFINED_HEIGHT_BEGIN
1070
    46
1040
0.0
1000
ACAD_MTEXT_DEFINED_HEIGHT_END
  0
TEXT
  5
AF2
330
ACA
100
AcDbEntity
  8
0
 62
     3
100
AcDbText
 10
134.7875975377898
 20
11.10091659415177
 30
0.0
 40
3.2
  1
1/1
  7
高3.2
100
AcDbText
  0
TEXT
  5
AF3
330
ACA
100
AcDbEntity
  8
0
 62
     3
100
AcDbText
 10
131.8649265131434
 20
0.8168777647198622
 30
0.0
 40
3.2
  1
ZK-A4Y
 41
0.8
  7
高3.2
100
AcDbText
  0
TEXT
  5
AF4
330
ACA
100
AcDbEntity
  8
0
 62
     3
100
AcDbText
 10
89.58526604314341
 20
6.524620013771727
 30
0.0
 40
2.0
  1
NICHIDO IND.CO.LTD
 41
1.3
  7
高2
100
AcDbText
  0
TEXT
  5
AF5
330
ACA
100
AcDbEntity
  8
0
 62
     3
100
AcDbText
 10
90.76678930810066
 20
32.14052779946884
 30
0.0
 40
3.2
  1
品 名
  7
高3.2
100
AcDbText
1001
ACAD
1000
ACAD_MTEXT_DEFINED_HEIGHT_BEGIN
1070
    46
1040
0.0
1000
ACAD_MTEXT_DEFINED_HEIGHT_END
  0
TEXT
  5
AF6
330
ACA
100
AcDbEntity
  8
0
 62
     3
100
AcDbText
 10
90.76678930810066
 20
24.49999959158389
 30
0.0
 40
3.2
  1
型 式
  7
高3.2
100
AcDbText
1001
ACAD
1000
ACAD_MTEXT_DEFINED_HEIGHT_BEGIN
1070
    46
1040
3.064735913775954
1000
ACAD_MTEXT_DEFINED_HEIGHT_END
  0
TEXT
  5
AF7
330
ACA
100
AcDbEntity
  8
0
 62
     3
100
AcDbText
 10
90.76678930810066
 20
17.4999995915839
 30
0.0
 40
3.2
  1
材 質
  7
高3.2
100
AcDbText
1001
ACAD
1000
ACAD_MTEXT_DEFINED_HEIGHT_BEGIN
1070
    46
1040
0.0
1000
ACAD_MTEXT_DEFINED_HEIGHT_END
  0
TEXT
  5
AF8
330
ACA
100
AcDbEntity
  8
0
 62
     3
100
AcDbText
 10
90.46175435810059
 20
10.46743958383014
 30
0.0
 40
3.2
  1
第 三 角 法
  7
高3.2
100
AcDbText
1001
ACAD
1000
ACAD_MTEXT_DEFINED_HEIGHT_BEGIN
1070
    46
1040
0.0
1000
ACAD_MTEXT_DEFINED_HEIGHT_END
  0
TEXT
  5
AF9
330
ACA
100
AcDbEntity
  8
0
 62
     3
100
AcDbText
 10
88.86828696562952
 20
1.140527799468833
 30
0.0
 40
3.2
  1
日動工業株式会社
 41
1.199999999999999
  7
高3.2
100
AcDbText
1001
ACAD
1000
ACAD_MTEXT_DEFINED_HEIGHT_BEGIN
1070
    46
1040
0.0
1000
ACAD_MTEXT_DEFINED_HEIGHT_END
  0
TEXT
  5
AFA
330
ACA
100
AcDbEntity
  8
0
 62
     3
100
AcDbText
 10
122.503911165108
 20
17.38457812475146
 30
0.0
 40
3.2
  1
備考
  7
高3.2
100
AcDbText
1001
ACAD
1000
ACAD_MTEXT_DEFINED_HEIGHT_BEGIN
1070
    46
1040
0.0
1000
ACAD_MTEXT_DEFINED_HEIGHT_END
  0
TEXT
  5
AFB
330
ACA
100
AcDbEntity
  8
0
 62
     3
100
AcDbText
 10
132.1529686121434
 20
6.146229617154192
 30
0.0
 40
2.5
  1
出図コード
  7
高2.5
100
AcDbText
1001
ACAD
1000
ACAD_MTEXT_DEFINED_HEIGHT_BEGIN
1070
    46
1040
0.0
1000
ACAD_MTEXT_DEFINED_HEIGHT_END
  0
TEXT
  5
AFC
330
ACA
100
AcDbEntity
  8
0
 62
     3
100
AcDbText
 10
122.3451450470205
 20
10.45323450199681
 30
0.0
 40
3.2
  1
尺度
  7
高3.2
100
AcDbText
1001
ACAD
1000
ACAD_MTEXT_DEFINED_HEIGHT_BEGIN
1070
    46
1040
0.0
1000
ACAD_MTEXT_DEFINED_HEIGHT_END
  0
TEXT
  5
AFD
330
ACA
100
AcDbEntity
  8
0
 62
     3
100
AcDbText
 10
149.4914065287993
 20
11.58471295011431
 30
0.0
 40
3.2
  1
作成日
  7
高3.2
100
AcDbText
1001
ACAD
1000
ACAD_MTEXT_DEFINED_HEIGHT_BEGIN
1070
    46
1040
0.0
1000
ACAD_MTEXT_DEFINED_HEIGHT_END
  0
TEXT
  5
AFE
330
ACA
100
AcDbEntity
  8
0
 62
     3
100
AcDbText
 10
149.3858805356633
 20
32.14052779946884
 30
0.0
 40
3.2
  1
承 認
  7
高3.2
100
AcDbText
1001
ACAD
1000
ACAD_MTEXT_DEFINED_HEIGHT_BEGIN
1070
    46
1040
0.0
1000
ACAD_MTEXT_DEFINED_HEIGHT_END
  0
TEXT
  5
AFF
330
ACA
100
AcDbEntity
  8
0
 62
     3
100
AcDbText
 10
162.3858805356632
 20
32.14052779946884
 30
0.0
 40
3.2
  1
検 図
  7
高3.2
100
AcDbText
1001
ACAD
1000
ACAD_MTEXT_DEFINED_HEIGHT_BEGIN
1070
    46
1040
0.0
1000
ACAD_MTEXT_DEFINED_HEIGHT_END
  0
TEXT
  5
B00
330
ACA
100
AcDbEntity
  8
0
 62
     3
100
AcDbText
 10
175.3858805356632
 20
32.14052779946884
 30
0.0
 40
3.2
  1
設 計
  7
高3.2
100
AcDbText
1001
ACAD
1000
ACAD_MTEXT_DEFINED_HEIGHT_BEGIN
1070
    46
1040
0.0
1000
ACAD_MTEXT_DEFINED_HEIGHT_END
  0
TEXT
  5
B01
330
ACA
100
AcDbEntity
  8
0
 62
     3
100
AcDbText
 10
188.6865170556632
 20
32.14052779946884
 30
0.0
 40
3.2
  1
製 図
  7
高3.2
100
AcDbText
1001
ACAD
1000
ACAD_MTEXT_DEFINED_HEIGHT_BEGIN
1070
    46
1040
0.0
1000
ACAD_MTEXT_DEFINED_HEIGHT_END
  0
LINE
  5
B02
330
ACA
100
AcDbEntity
  8
0
 62
     3
100
AcDbLine
 10
59.25293360287718
 20
278.4481801852499
 30
0.0
 11
59.25293360287718
 21
275.2948313915841
 31
0.0
  0
LINE
  5
B03
330
ACA
100
AcDbEntity
  8
0
 62
     3
100
AcDbLine
 10
59.89576267797656
 20
277.2171083655226
 30
0.0
 11
59.89576267797656
 21
275.2948313915841
 31
0.0
  0
LINE
  5
B04
330
ACA
100
AcDbEntity
  8
0
 62
     3
100
AcDbLine
 10
61.6998595658506
 20
278.4481801852499
 30
0.0
 11
61.6998595658506
 21
277.0597132644989
 31
0.0
  0
LINE
  5
B05
330
ACA
100
AcDbEntity
  8
0
 62
     3
100
AcDbLine
 10
62.34268796709443
 20
278.4481801852499
 30
0.0
 11
62.34268796709443
 21
274.8721993930075
 31
0.0
  0
LINE
  5
B06
330
ACA
100
AcDbEntity
  8
0
 62
     3
100
AcDbLine
 10
63.36663412467465
 20
278.4265210809052
 30
0.0
 11
63.36663412467465
 21
275.2732106969974
 31
0.0
  0
LINE
  5
B07
330
ACA
100
AcDbEntity
  8
0
 62
     3
100
AcDbLine
 10
64.38515577894964
 20
278.4265069299419
 30
0.0
 11
64.38515577894964
 21
275.2731965460339
 31
0.0
  0
LINE
  5
B08
330
ACA
100
AcDbEntity
  8
0
 62
     3
100
AcDbLine
 10
68.15597884937665
 20
278.4264597600639
 30
0.0
 11
68.15592359323386
 21
275.2731500500114
 31
0.0
  0
LINE
  5
B09
330
ACA
100
AcDbEntity
  8
0
 62
     3
100
AcDbLine
 10
71.27184308874848
 20
278.4264597600639
 30
0.0
 11
71.27189834489104
 21
275.2731500500114
 31
0.0
  0
LINE
  5
B0A
330
ACA
100
AcDbEntity
  8
0
 62
     3
100
AcDbLine
 10
70.23141843857614
 20
277.05262965244
 30
0.0
 11
69.19640349954898
 21
277.05262965244
 31
0.0
  0
LINE
  5
B0B
330
ACA
100
AcDbEntity
  8
0
 62
     3
100
AcDbLine
 10
70.23141170002213
 20
276.6470738235357
 30
0.0
 11
69.19641091195831
 21
276.6470738235357
 31
0.0
  0
LINE
  5
B0C
330
ACA
100
AcDbEntity
  8
0
 62
     3
100
AcDbLine
 10
70.23144269737054
 20
278.4264597600639
 30
0.0
 11
70.23141843857614
 21
277.05262965244
 31
0.0
  0
LINE
  5
B0D
330
ACA
100
AcDbEntity
  8
0
 62
     3
100
AcDbLine
 10
70.23141170002213
 20
276.6470738235357
 30
0.0
 11
70.23138744122753
 21
275.2731500500114
 31
0.0
  0
LINE
  5
B0E
330
ACA
100
AcDbEntity
  8
0
 62
     3
100
AcDbLine
 10
69.19637924075459
 20
278.4264597600639
 30
0.0
 11
69.19640349954898
 21
277.05262965244
 31
0.0
  0
LINE
  5
B0F
330
ACA
100
AcDbEntity
  8
0
 62
     3
100
AcDbLine
 10
69.19641091195831
 20
276.6470738235357
 30
0.0
 11
69.19643449689714
 21
275.2731500500114
 31
0.0
  0
LINE
  5
B10
330
ACA
100
AcDbEntity
  8
0
 62
     3
100
AcDbLine
 10
72.29826422648716
 20
278.4264597600639
 30
0.0
 11
72.29820897034461
 21
275.2731500500114
 31
0.0
  0
LINE
  5
B11
330
ACA
100
AcDbEntity
  8
0
 62
     3
100
AcDbLine
 10
73.31676431738968
 20
278.4264597600639
 30
0.0
 11
73.31681889967693
 21
275.2731500500114
 31
0.0
  0
LINE
  5
B12
330
ACA
100
AcDbEntity
  8
0
 62
     3
100
AcDbLine
 10
74.35500991471371
 20
278.4264597600639
 30
0.0
 11
74.35495533242647
 21
275.2731500500114
 31
0.0
  0
ARC
  5
B13
330
ACA
100
AcDbEntity
  8
0
 62
     3
100
AcDbCircle
 10
66.62693773325168
 20
276.8588908343133
 30
0.0
 40
2.008364022758428
100
AcDbArc
 50
97.70152399999972
 51
266.0248408089554
  0
ARC
  5
B14
330
ACA
100
AcDbEntity
  8
0
 62
     3
100
AcDbCircle
 10
78.74673843866117
 20
276.8387169513708
 30
0.0
 40
2.030175374321248
100
AcDbArc
 50
0.3142499999973636
 51
69.00558199999754
  0
ARC
  5
B15
330
ACA
100
AcDbEntity
  8
0
 62
     3
100
AcDbCircle
 10
79.19020739389337
 20
276.8387169513708
 30
0.0
 40
2.030175374321248
100
AcDbArc
 50
110.9944180000024
 51
148.1166110000007
  0
ARC
  5
B16
330
ACA
100
AcDbEntity
  8
0
 62
     3
100
AcDbCircle
 10
78.74673843866117
 20
276.8609865246051
 30
0.0
 40
2.030175374321248
100
AcDbArc
 50
290.9944180000024
 51
359.685749999999
  0
ARC
  5
B17
330
ACA
100
AcDbEntity
  8
0
 62
     3
100
AcDbCircle
 10
79.19020739389337
 20
276.8609865246051
 30
0.0
 40
2.030175374321248
100
AcDbArc
 50
211.8833889999977
 51
249.0055819999976
  0
ARC
  5
B18
330
ACA
100
AcDbEntity
  8
0
 62
     3
100
AcDbCircle
 10
78.96847325320504
 20
277.6804317521362
 30
0.0
 40
1.168726044333501
100
AcDbArc
 50
64.3651719999999
 51
115.6348280000001
  0
ARC
  5
B19
330
ACA
100
AcDbEntity
  8
0
 62
     3
100
AcDbCircle
 10
78.96847325320504
 20
276.0192717238397
 30
0.0
 40
1.168726044333501
100
AcDbArc
 50
244.3651719999999
 51
295.6348280000002
  0
ARC
  5
B1A
330
ACA
100
AcDbEntity
  8
0
 62
     3
100
AcDbCircle
 10
78.96847325320504
 20
277.7026325921198
 30
0.0
 40
0.5736005406576802
100
AcDbArc
 50
19.48660599999859
 51
160.5133940000014
  0
ARC
  5
B1B
330
ACA
100
AcDbEntity
  8
0
 62
     3
100
AcDbCircle
 10
78.96847325320504
 20
275.9970715577115
 30
0.0
 40
0.5736005406576802
100
AcDbArc
 50
199.4866059999986
 51
340.5133940000014
  0
LINE
  5
B1C
330
ACA
100
AcDbEntity
  8
0
 62
     3
100
AcDbLine
 10
73.65396743405449
 20
274.8505456795062
 30
0.0
 11
71.96106110982238
 21
274.8505456795062
 31
0.0
  0
LINE
  5
B1D
330
ACA
100
AcDbEntity
  8
0
 62
     3
100
AcDbLine
 10
73.65396743405449
 20
275.0542049968205
 30
0.0
 11
73.65396743405449
 21
274.8505456795062
 31
0.0
  0
LINE
  5
B1E
330
ACA
100
AcDbEntity
  8
0
 62
     3
100
AcDbLine
 10
71.6090468792688
 20
278.8490627828584
 30
0.0
 11
69.89423958070552
 21
278.8490627828584
 31
0.0
  0
LINE
  5
B1F
330
ACA
100
AcDbEntity
  8
0
 62
     3
100
AcDbLine
 10
71.6090468792688
 20
278.8490627828584
 30
0.0
 11
71.6090468792688
 21
278.6454984791553
 31
0.0
  0
LINE
  5
B20
330
ACA
100
AcDbEntity
  8
0
 62
     3
100
AcDbLine
 10
71.6090468792688
 20
275.0542049968205
 30
0.0
 11
71.6090468792688
 21
274.8504506658949
 31
0.0
  0
LINE
  5
B21
330
ACA
100
AcDbEntity
  8
0
 62
     3
100
AcDbLine
 10
71.6090468792688
 20
274.8504506658949
 30
0.0
 11
69.89423958070552
 21
274.8504506658949
 31
0.0
  0
LINE
  5
B22
330
ACA
100
AcDbEntity
  8
0
 62
     3
100
AcDbLine
 10
73.65396743405449
 20
278.8491577964696
 30
0.0
 11
73.65396743405449
 21
278.6454984791553
 31
0.0
  0
LINE
  5
B23
330
ACA
100
AcDbEntity
  8
0
 62
     3
100
AcDbLine
 10
73.65396743405449
 20
278.8491577964696
 30
0.0
 11
71.96106110982238
 21
278.8491577964696
 31
0.0
  0
LINE
  5
B24
330
ACA
100
AcDbEntity
  8
0
 62
     3
100
AcDbLine
 10
71.96106110982238
 20
278.8491577964696
 30
0.0
 11
71.96106110982238
 21
278.6454984791553
 31
0.0
  0
LINE
  5
B25
330
ACA
100
AcDbEntity
  8
0
 62
     3
100
AcDbLine
 10
74.01780679804892
 20
275.0542049968205
 30
0.0
 11
74.01780679804892
 21
274.8505456795062
 31
0.0
  0
LINE
  5
B26
330
ACA
100
AcDbEntity
  8
0
 62
     3
100
AcDbLine
 10
75.84572495832481
 20
274.8505456795062
 30
0.0
 11
74.01780679804892
 21
274.8505456795062
 31
0.0
  0
LINE
  5
B27
330
ACA
100
AcDbEntity
  8
0
 62
     3
100
AcDbLine
 10
75.37351000561624
 20
278.2063293952258
 30
0.0
 11
75.37351000561624
 21
275.4933740807501
 31
0.0
  0
LINE
  5
B28
330
ACA
100
AcDbEntity
  8
0
 62
     3
100
AcDbLine
 10
75.37351000561624
 20
275.4933740807501
 30
0.0
 11
75.55646039880094
 21
275.4933740807501
 31
0.0
  0
ARC
  5
B29
330
ACA
100
AcDbEntity
  8
0
 62
     3
100
AcDbCircle
 10
74.62097053296566
 20
276.8498517379879
 30
0.0
 40
1.647777933922859
100
AcDbArc
 50
304.5919550000009
 51
55.40804499999918
  0
LINE
  5
B2A
330
ACA
100
AcDbEntity
  8
0
 62
     3
100
AcDbLine
 10
75.84572495832481
 20
278.8491577964696
 30
0.0
 11
74.01780679804892
 21
278.8491577964696
 31
0.0
  0
LINE
  5
B2B
330
ACA
100
AcDbEntity
  8
0
 62
     3
100
AcDbLine
 10
74.01780679804892
 20
278.8491577964696
 30
0.0
 11
74.01780679804892
 21
278.6454984791553
 31
0.0
  0
LINE
  5
B2C
330
ACA
100
AcDbEntity
  8
0
 62
     3
100
AcDbLine
 10
71.96106110982238
 20
275.0542049968205
 30
0.0
 11
71.96106110982238
 21
274.8505456795062
 31
0.0
  0
LINE
  5
B2D
330
ACA
100
AcDbEntity
  8
0
 62
     3
100
AcDbLine
 10
75.37351000561624
 20
278.2063293952258
 30
0.0
 11
75.55646039880094
 21
278.2063293952258
 31
0.0
  0
LINE
  5
B2E
330
ACA
100
AcDbEntity
  8
0
 62
     3
100
AcDbLine
 10
64.72230027005207
 20
275.0541986224044
 30
0.0
 11
64.72229622691975
 21
274.8505204371389
 31
0.0
  0
LINE
  5
B2F
330
ACA
100
AcDbEntity
  8
0
 62
     3
100
AcDbLine
 10
58.91573048621217
 20
274.8721993930075
 30
0.0
 11
60.23296579464136
 21
274.8721993930075
 31
0.0
  0
ARC
  5
B30
330
ACA
100
AcDbEntity
  8
0
 62
     3
100
AcDbCircle
 10
53.62514174043872
 20
276.8969319931671
 30
0.0
 40
14.16402202796531
100
AcDbArc
 50
353.8660059999992
 51
357.694034000001
  0
LINE
  5
B31
330
ACA
100
AcDbEntity
  8
0
 62
     3
100
AcDbLine
 10
66.82941578205123
 20
276.3305396837151
 30
0.0
 11
67.77769474950878
 21
276.3270309186513
 31
0.0
  0
LWPOLYLINE
  5
B32
330
ACA
100
AcDbEntity
  8
0
 62
     3
100
AcDbPolyline
 90
       64
 70
     0
 43
0.0
 10
66.83324530228515
 20
277.3655957279217
 10
66.81531333625571
 20
277.4804085585561
 10
66.79377759155113
 20
277.5903480669433
 10
66.76880518431062
 20
277.6945638475691
 10
66.7405874894671
 20
277.7922499693764
 10
66.70934418388106
 20
277.8826523881731
 10
66.67531583392997
 20
277.965071642055
 10
66.63876524321927
 20
278.0388702638143
 10
66.59997610487244
 20
278.1034788456387
 10
66.5592476106865
 20
278.1583980606774
 10
66.51689445113311
 20
278.2032020323179
 10
66.47324411993621
 20
278.2375457465958
 10
66.42863354479527
 20
278.2611630306287
 10
66.3834084135301
 20
278.2738719434584
 10
66.3379177832378
 20
278.275574102197
 10
66.29251340643645
 20
278.2662553558807
 10
66.24754568793401
 20
278.2459891547484
 10
66.20336301097154
 20
278.2149318332525
 10
66.1603070202366
 20
278.1733226100598
 10
66.11870925258563
 20
278.1214835880512
 10
66.07889248475498
 20
278.059815711189
 10
66.04116399480678
 20
277.9887953952409
 10
66.00581556212842
 20
277.9089711585015
 10
65.97312009815687
 20
277.8209609263721
 10
65.94333029866698
 20
277.7254446189504
 10
65.91667729606047
 20
277.6231607817542
 10
65.89336594237898
 20
277.5148991733112
 10
65.8735768308693
 20
277.4014967220273
 10
65.85746360056259
 20
277.2838307876325
 10
65.84514956699672
 20
277.1628104010602
 10
65.8367310914939
 20
277.0393708736045
 10
65.8322728641724
 20
276.9144670583663
 10
65.83180857780234
 20
276.7890632424218
 10
65.83534294937158
 20
276.6641291036907
 10
65.84284767695293
 20
276.5406309508153
 10
65.85426548283772
 20
276.4195222891857
 10
65.86950809196878
 20
276.3017404516621
 10
65.88845690579546
 20
276.1881951430336
 10
65.91096637155192
 20
276.0797643968855
 10
65.93686196068961
 20
275.9772851416234
 10
65.9659442120103
 20
275.8815511789078
 10
65.9979873839552
 20
275.7933010542562
 10
66.03274417159309
 20
275.7132180570435
 10
66.06994638047467
 20
275.6419207865263
 10
66.10930560048927
 20
275.5799597825655
 10
66.1505179228518
 20
275.5278141563501
 10
66.1932652878138
 20
275.4858875472644
 10
66.23721683237431
 20
275.4545040797554
 10
66.28203293341198
 20
275.4339056679111
 10
66.32736722925165
 20
275.4242513416061
 10
66.37286931508583
 20
275.425616572645
 10
66.41818743839599
 20
275.437989905486
 10
66.46297119437463
 20
275.4612770003731
 10
66.50687489520167
 20
275.4952965902041
 10
66.54955824390071
 20
275.5397865452286
 10
66.59069239903693
 20
275.5944018514821
 10
66.62995862700654
 20
275.6587220231956
 10
66.66705369287956
 20
275.7322484073737
 10
66.70169120811171
 20
275.81441361777
 10
66.73360297825388
 20
275.9045822087433
 10
66.76254237222997
 20
276.0020574138105
 10
66.78828567004734
 20
276.1060851887801
 10
66.81063475821884
 20
276.2158622980159
 10
66.82941578205123
 20
276.3305396837151
  0
LINE
  5
B33
330
ACA
100
AcDbEntity
  8
0
 62
     3
100
AcDbLine
 10
66.83324530228515
 20
277.3655957279217
 30
0.0
 11
67.7815242697427
 21
277.3620869628577
 31
0.0
  0
ARC
  5
B34
330
ACA
100
AcDbEntity
  8
0
 62
     3
100
AcDbCircle
 10
53.62514174043872
 20
276.8969319931671
 30
0.0
 40
14.16402202796531
100
AcDbArc
 50
1.881965999999206
 51
5.709993999999093
  0
LINE
  5
B35
330
ACA
100
AcDbEntity
  8
0
 62
     3
100
AcDbLine
 10
64.72236630803535
 20
278.8491402896916
 30
0.0
 11
64.72236293875835
 21
278.6454998403284
 31
0.0
  0
LINE
  5
B36
330
ACA
100
AcDbEntity
  8
0
 62
     3
100
AcDbLine
 10
63.02939394595137
 20
275.0542036356474
 30
0.0
 11
63.02939057667436
 21
274.8505631862842
 31
0.0
  0
LINE
  5
B37
330
ACA
100
AcDbEntity
  8
0
 62
     3
100
AcDbLine
 10
63.02945998378049
 20
278.8491759773598
 30
0.0
 11
63.02945661450348
 21
278.6454971182388
 31
0.0
  0
LINE
  5
B38
330
ACA
100
AcDbEntity
  8
0
 62
     3
100
AcDbLine
 10
60.23296579464136
 20
275.075858710322
 30
0.0
 11
60.23296579464136
 21
274.8721993930075
 31
0.0
  0
LINE
  5
B39
330
ACA
100
AcDbEntity
  8
0
 62
     3
100
AcDbLine
 10
59.89576267797656
 20
277.2171083655226
 30
0.0
 11
61.3613307857986
 21
274.8721993930075
 31
0.0
  0
LINE
  5
B3A
330
ACA
100
AcDbEntity
  8
0
 62
     3
100
AcDbLine
 10
61.3613307857986
 20
274.8721993930075
 30
0.0
 11
62.34268796709443
 21
274.8721993930075
 31
0.0
  0
LINE
  5
B3B
330
ACA
100
AcDbEntity
  8
0
 62
     3
100
AcDbLine
 10
62.67989108375922
 20
278.870811509971
 30
0.0
 11
62.67989108375922
 21
278.6671521926566
 31
0.0
  0
LINE
  5
B3C
330
ACA
100
AcDbEntity
  8
0
 62
     3
100
AcDbLine
 10
61.36265644918558
 20
278.870811509971
 30
0.0
 11
62.67989108375922
 21
278.870811509971
 31
0.0
  0
LINE
  5
B3D
330
ACA
100
AcDbEntity
  8
0
 62
     3
100
AcDbLine
 10
61.36265644918558
 20
278.870811509971
 30
0.0
 11
61.36265644918558
 21
278.6671521926566
 31
0.0
  0
LINE
  5
B3E
330
ACA
100
AcDbEntity
  8
0
 62
     3
100
AcDbLine
 10
61.6998595658506
 20
277.0597132644989
 30
0.0
 11
60.51132621591159
 21
278.870811509971
 31
0.0
  0
LINE
  5
B3F
330
ACA
100
AcDbEntity
  8
0
 62
     3
100
AcDbLine
 10
58.91573048621217
 20
278.870811509971
 30
0.0
 11
60.51132621591159
 21
278.870811509971
 31
0.0
  0
LINE
  5
B40
330
ACA
100
AcDbEntity
  8
0
 62
     3
100
AcDbLine
 10
67.81877573271163
 20
278.8490627828584
 30
0.0
 11
69.53358235741939
 21
278.8490627828583
 31
0.0
  0
LINE
  5
B41
330
ACA
100
AcDbEntity
  8
0
 62
     3
100
AcDbLine
 10
67.81877573271163
 20
278.6454984791553
 30
0.0
 11
67.81877573271163
 21
278.8490627828584
 31
0.0
  0
LINE
  5
B42
330
ACA
100
AcDbEntity
  8
0
 62
     3
100
AcDbLine
 10
67.81877573271163
 20
274.8504506658949
 30
0.0
 11
67.81877573271163
 21
275.0542049968205
 31
0.0
  0
LINE
  5
B43
330
ACA
100
AcDbEntity
  8
0
 62
     3
100
AcDbLine
 10
67.81877573271163
 20
274.8504506658948
 30
0.0
 11
69.53358235741939
 21
274.8504506658949
 31
0.0
  0
LINE
  5
B44
330
ACA
100
AcDbEntity
  8
0
 62
     3
100
AcDbLine
 10
69.89423958070552
 20
275.0542049968205
 30
0.0
 11
69.89423958070552
 21
274.8504506658949
 31
0.0
  0
LINE
  5
B45
330
ACA
100
AcDbEntity
  8
0
 62
     3
100
AcDbLine
 10
69.53358235741939
 20
275.0542049968205
 30
0.0
 11
69.53358235741939
 21
274.8504506658949
 31
0.0
  0
LINE
  5
B46
330
ACA
100
AcDbEntity
  8
0
 62
     3
100
AcDbLine
 10
69.53358235741939
 20
278.6454984791553
 30
0.0
 11
69.53358235741939
 21
278.8490627828584
 31
0.0
  0
LINE
  5
B47
330
ACA
100
AcDbEntity
  8
0
 62
     3
100
AcDbLine
 10
69.89423958070552
 20
278.6454984791553
 30
0.0
 11
69.89423958070552
 21
278.8490627828584
 31
0.0
  0
LINE
  5
B48
330
ACA
100
AcDbEntity
  8
0
 62
     3
100
AcDbLine
 10
58.91573048621217
 20
275.075858710322
 30
0.0
 11
58.91573048621217
 21
274.8721993930075
 31
0.0
  0
LINE
  5
B49
330
ACA
100
AcDbEntity
  8
0
 62
     3
100
AcDbLine
 10
58.91573048621217
 20
278.870811509971
 30
0.0
 11
58.91573048621217
 21
278.6671521926566
 31
0.0
  0
ARC
  5
B4A
330
ACA
100
AcDbEntity
  8
0
 62
     3
100
AcDbCircle
 10
76.0173242060589
 20
277.2693247024529
 30
0.0
 40
1.579833094016801
100
AcDbArc
 50
17.30874900000322
 51
23.76507099999849
  0
ARC
  5
B4B
330
ACA
100
AcDbEntity
  8
0
 62
     3
100
AcDbCircle
 10
74.67127580883515
 20
276.8498517379879
 30
0.0
 40
2.989728616463745
100
AcDbArc
 50
342.6912509999968
 51
17.30856599999721
  0
ARC
  5
B4C
330
ACA
100
AcDbEntity
  8
0
 62
     3
100
AcDbCircle
 10
76.0173242060589
 20
276.430378773523
 30
0.0
 40
1.579833094016801
100
AcDbArc
 50
336.2349290000015
 51
342.6912509999968
  0
ARC
  5
B4D
330
ACA
100
AcDbEntity
  8
0
 62
     3
100
AcDbCircle
 10
75.84572495832481
 20
277.2693247024529
 30
0.0
 40
1.579833094016801
100
AcDbArc
 50
17.30874900000322
 51
90.0
  0
ARC
  5
B4E
330
ACA
100
AcDbEntity
  8
0
 62
     3
100
AcDbCircle
 10
74.49967317843402
 20
276.8498607706099
 30
0.0
 40
2.989728616463745
100
AcDbArc
 50
342.6912509999968
 51
17.30856599999721
  0
ARC
  5
B4F
330
ACA
100
AcDbEntity
  8
0
 62
     3
100
AcDbCircle
 10
75.84572495832481
 20
276.430378773523
 30
0.0
 40
1.579833094016801
100
AcDbArc
 50
270.0
 51
342.6912509999968
  0
ARC
  5
B50
330
ACA
100
AcDbEntity
  8
0
 62
     3
100
AcDbCircle
 10
66.34906806852905
 20
276.8498517379879
 30
0.0
 40
1.999306058481751
100
AcDbArc
 50
46.7528800000023
 51
89.74999799999961
  0
ARC
  5
B51
330
ACA
100
AcDbEntity
  8
0
 62
     3
100
AcDbCircle
 10
66.34906806852905
 20
276.8498517379879
 30
0.0
 40
1.999306058481751
100
AcDbArc
 50
273.9763330000016
 51
312.8231199999934
  0
ARC
  5
B52
330
ACA
100
AcDbEntity
  8
0
 62
     3
100
AcDbCircle
 10
77.08381358307406
 20
276.8189878129916
 30
0.0
 40
2.652957925148358
100
AcDbArc
 50
0.666583999999372
 51
23.90392800000306
  0
ARC
  5
B53
330
ACA
100
AcDbEntity
  8
0
 62
     3
100
AcDbCircle
 10
80.8531322494805
 20
276.8189878129916
 30
0.0
 40
2.652957925148358
100
AcDbArc
 50
156.0960719999969
 51
179.3334160000006
  0
ARC
  5
B54
330
ACA
100
AcDbEntity
  8
0
 62
     3
100
AcDbCircle
 10
77.08381358307406
 20
276.8807156629842
 30
0.0
 40
2.652957925148358
100
AcDbArc
 50
336.0960719999969
 51
359.3334159999979
  0
ARC
  5
B55
330
ACA
100
AcDbEntity
  8
0
 62
     3
100
AcDbCircle
 10
80.8531322494805
 20
276.8807156629842
 30
0.0
 40
2.652957925148358
100
AcDbArc
 50
180.6665839999993
 51
203.903928000003
  0
LINE
  5
B56
330
ACA
100
AcDbEntity
  8
0
  6
Continuous
 62
     3
100
AcDbLine
 10
58.91573048621217
 20
278.6671521926566
 30
0.0
 11
59.25293360287718
 21
278.4481801852499
 31
0.0
  0
LINE
  5
B57
330
ACA
100
AcDbEntity
  8
0
  6
Continuous
 62
     3
100
AcDbLine
 10
61.36265644918558
 20
278.6671521926566
 30
0.0
 11
61.6998595658506
 21
278.4481801852499
 31
0.0
  0
LINE
  5
B58
330
ACA
100
AcDbEntity
  8
0
  6
Continuous
 62
     3
100
AcDbLine
 10
62.67989108375922
 20
278.6671521926566
 30
0.0
 11
62.34268796709443
 21
278.4481801852499
 31
0.0
  0
LINE
  5
B59
330
ACA
100
AcDbEntity
  8
0
  6
Continuous
 62
     3
100
AcDbLine
 10
63.02945661450348
 20
278.6454971182388
 30
0.0
 11
63.36663412467465
 21
278.4265210809052
 31
0.0
  0
LINE
  5
B5A
330
ACA
100
AcDbEntity
  8
0
  6
Continuous
 62
     3
100
AcDbLine
 10
64.72236293875835
 20
278.6454998403284
 30
0.0
 11
64.38515577894964
 21
278.4265069299419
 31
0.0
  0
LINE
  5
B5B
330
ACA
100
AcDbEntity
  8
0
  6
Continuous
 62
     3
100
AcDbLine
 10
67.81877573271163
 20
278.6454984791553
 30
0.0
 11
68.15597884937665
 21
278.4264597600639
 31
0.0
  0
LINE
  5
B5C
330
ACA
100
AcDbEntity
  8
0
  6
Continuous
 62
     3
100
AcDbLine
 10
69.53358235741939
 20
278.6454984791553
 30
0.0
 11
69.19637924075459
 21
278.4264597600639
 31
0.0
  0
LINE
  5
B5D
330
ACA
100
AcDbEntity
  8
0
  6
Continuous
 62
     3
100
AcDbLine
 10
69.89423958070552
 20
278.6454984791553
 30
0.0
 11
70.23144269737054
 21
278.4264597600639
 31
0.0
  0
LINE
  5
B5E
330
ACA
100
AcDbEntity
  8
0
  6
Continuous
 62
     3
100
AcDbLine
 10
71.6090468792688
 20
278.6454984791553
 30
0.0
 11
71.27184308874848
 21
278.4264597600639
 31
0.0
  0
LINE
  5
B5F
330
ACA
100
AcDbEntity
  8
0
  6
Continuous
 62
     3
100
AcDbLine
 10
71.96106110982238
 20
278.6454984791553
 30
0.0
 11
72.29826422648716
 21
278.4264597600639
 31
0.0
  0
LINE
  5
B60
330
ACA
100
AcDbEntity
  8
0
  6
Continuous
 62
     3
100
AcDbLine
 10
73.65396743405449
 20
278.6454984791553
 30
0.0
 11
73.31676431738968
 21
278.4264597600639
 31
0.0
  0
LINE
  5
B61
330
ACA
100
AcDbEntity
  8
0
  6
Continuous
 62
     3
100
AcDbLine
 10
74.01780679804892
 20
278.6454984791553
 30
0.0
 11
74.35500991471371
 21
278.4264597600639
 31
0.0
  0
LINE
  5
B62
330
ACA
100
AcDbEntity
  8
0
  6
Continuous
 62
     3
100
AcDbLine
 10
74.35495533242647
 20
275.2731500500114
 30
0.0
 11
74.01780679804892
 21
275.0542049968205
 31
0.0
  0
LINE
  5
B63
330
ACA
100
AcDbEntity
  8
0
  6
Continuous
 62
     3
100
AcDbLine
 10
73.31681889967693
 20
275.2731500500114
 30
0.0
 11
73.65396743405449
 21
275.0542049968205
 31
0.0
  0
LINE
  5
B64
330
ACA
100
AcDbEntity
  8
0
  6
Continuous
 62
     3
100
AcDbLine
 10
72.29820897034461
 20
275.2731500500114
 30
0.0
 11
71.96106110982238
 21
275.0542049968205
 31
0.0
  0
LINE
  5
B65
330
ACA
100
AcDbEntity
  8
0
  6
Continuous
 62
     3
100
AcDbLine
 10
71.6090468792688
 20
275.0542049968205
 30
0.0
 11
71.27189834489104
 21
275.2731500500114
 31
0.0
  0
LINE
  5
B66
330
ACA
100
AcDbEntity
  8
0
  6
Continuous
 62
     3
100
AcDbLine
 10
69.89423958070552
 20
275.0542049968205
 30
0.0
 11
70.23138744122753
 21
275.2731500500114
 31
0.0
  0
LINE
  5
B67
330
ACA
100
AcDbEntity
  8
0
  6
Continuous
 62
     3
100
AcDbLine
 10
69.53358235741939
 20
275.0542049968205
 30
0.0
 11
69.19643449689714
 21
275.2731500500114
 31
0.0
  0
LINE
  5
B68
330
ACA
100
AcDbEntity
  8
0
  6
Continuous
 62
     3
100
AcDbLine
 10
68.15592359323386
 20
275.2731500500114
 30
0.0
 11
67.81877573271163
 21
275.0542049968205
 31
0.0
  0
LINE
  5
B69
330
ACA
100
AcDbEntity
  8
0
  6
Continuous
 62
     3
100
AcDbLine
 10
64.72230027021101
 20
275.0542066299256
 30
0.0
 11
64.38515577894964
 21
275.2731965460339
 31
0.0
  0
LINE
  5
B6A
330
ACA
100
AcDbEntity
  8
0
  6
Continuous
 62
     3
100
AcDbLine
 10
63.02939394595137
 20
275.0542036356474
 30
0.0
 11
63.36656808684529
 21
275.2732106969974
 31
0.0
  0
LINE
  5
B6B
330
ACA
100
AcDbEntity
  8
0
  6
Continuous
 62
     3
100
AcDbLine
 10
60.23296579464136
 20
275.075858710322
 30
0.0
 11
59.89576267797656
 21
275.2948313915841
 31
0.0
  0
LINE
  5
B6C
330
ACA
100
AcDbEntity
  8
0
  6
Continuous
 62
     3
100
AcDbLine
 10
58.91573048621217
 20
275.075858710322
 30
0.0
 11
59.25293360287718
 21
275.2948313915841
 31
0.0
  0
LINE
  5
B6D
330
ACA
100
AcDbEntity
  8
0
  6
Continuous
 62
     3
100
AcDbLine
 10
64.72229622707867
 20
274.8505284446602
 30
0.0
 11
63.02939057667436
 21
274.8505631862842
 31
0.0
  0
LINE
  5
B6E
330
ACA
100
AcDbEntity
  8
0
  6
Continuous
 62
     3
100
AcDbLine
 10
63.02945998378049
 20
278.8491759773598
 30
0.0
 11
64.72236630803535
 21
278.8491402896916
 31
0.0
  0
ARC
  5
B6F
330
ACA
100
AcDbEntity
  8
0
  6
Continuous
 62
     3
100
AcDbCircle
 10
82.24372228088146
 20
276.8377054007734
 30
0.0
 40
0.9989999999999998
100
AcDbArc
 50
293.7485430905184
 51
66.25145690948149
  0
ARC
  5
B70
330
ACA
100
AcDbEntity
  8
0
  6
Continuous
 62
     3
100
AcDbCircle
 10
82.24372228088146
 20
276.8377054007734
 30
0.0
 40
1.498499999999999
100
AcDbArc
 50
293.7485430905184
 51
66.25145690948149
  0
ARC
  5
B71
330
ACA
100
AcDbEntity
  8
0
  6
Continuous
 62
     3
100
AcDbCircle
 10
74.59962913488856
 20
259.463983837004
 30
0.0
 40
19.98
100
AcDbArc
 50
66.25145690948149
 51
81.41597019517911
  0
ARC
  5
B72
330
ACA
100
AcDbEntity
  8
0
  6
Continuous
 62
     3
100
AcDbCircle
 10
74.59962913488856
 20
259.463983837004
 30
0.0
 40
20.4795
100
AcDbArc
 50
66.25145690948149
 51
81.41597019517911
  0
ARC
  5
B73
330
ACA
100
AcDbEntity
  8
0
  6
Continuous
 62
     3
100
AcDbCircle
 10
56.21958147402825
 20
276.8377054007734
 30
0.0
 40
0.9989999999999998
100
AcDbArc
 50
113.7485430905185
 51
246.2514569094815
  0
ARC
  5
B74
330
ACA
100
AcDbEntity
  8
0
  6
Continuous
 62
     3
100
AcDbCircle
 10
56.21958147402825
 20
276.8377054007734
 30
0.0
 40
1.498499999999999
100
AcDbArc
 50
113.7485430905185
 51
246.2514569094815
  0
ARC
  5
B75
330
ACA
100
AcDbEntity
  8
0
  6
Continuous
 62
     3
100
AcDbCircle
 10
63.86367462002089
 20
259.463983837004
 30
0.0
 40
19.98
100
AcDbArc
 50
98.5840298048209
 51
113.7485430905185
  0
ARC
  5
B76
330
ACA
100
AcDbEntity
  8
0
  6
Continuous
 62
     3
100
AcDbCircle
 10
63.86367462002089
 20
259.463983837004
 30
0.0
 40
20.4795
100
AcDbArc
 50
98.5840298048209
 51
113.7485430905185
  0
ARC
  5
B77
330
ACA
100
AcDbEntity
  8
0
  6
Continuous
 62
     3
100
AcDbCircle
 10
74.59962913488856
 20
294.2114269645427
 30
0.0
 40
19.98
100
AcDbArc
 50
278.5840298048209
 51
293.7485430905184
  0
ARC
  5
B78
330
ACA
100
AcDbEntity
  8
0
  6
Continuous
 62
     3
100
AcDbCircle
 10
74.59962913488856
 20
294.2114269645427
 30
0.0
 40
20.4795
100
AcDbArc
 50
278.5840298048209
 51
293.7485430905184
  0
ARC
  5
B79
330
ACA
100
AcDbEntity
  8
0
  6
Continuous
 62
     3
100
AcDbCircle
 10
63.86367462002089
 20
294.2114269645427
 30
0.0
 40
19.98
100
AcDbArc
 50
246.2514569094815
 51
261.4159701951791
  0
ARC
  5
B7A
330
ACA
100
AcDbEntity
  8
0
  6
Continuous
 62
     3
100
AcDbCircle
 10
63.86367462002089
 20
294.2114269645427
 30
0.0
 40
20.4795
100
AcDbArc
 50
246.2514569094815
 51
261.4159701951791
  0
ARC
  5
B7B
330
ACA
100
AcDbEntity
  8
0
  6
Continuous
 62
     3
100
AcDbCircle
 10
69.23165187745485
 20
223.9028517379889
 30
0.0
 40
56.44349999999903
100
AcDbArc
 50
81.41597019517911
 51
98.5840298048209
  0
ARC
  5
B7C
330
ACA
100
AcDbEntity
  8
0
  6
Continuous
 62
     3
100
AcDbCircle
 10
69.23165187745485
 20
223.9028517379897
 30
0.0
 40
55.94399999999822
100
AcDbArc
 50
81.41597019517911
 51
98.5840298048209
  0
ARC
  5
B7D
330
ACA
100
AcDbEntity
  8
0
  6
Continuous
 62
     3
100
AcDbCircle
 10
69.23165187745485
 20
329.7725590635579
 30
0.0
 40
56.44349999999903
100
AcDbArc
 50
261.4159701951791
 51
278.5840298048209
  0
ARC
  5
B7E
330
ACA
100
AcDbEntity
  8
0
  6
Continuous
 62
     3
100
AcDbCircle
 10
69.23165187745485
 20
329.7725590635571
 30
0.0
 40
55.94399999999822
100
AcDbArc
 50
261.4159701951791
 51
278.5840298048209
  0
TEXT
  5
B7F
330
ACA
100
AcDbEntity
  8
0
 62
     3
100
AcDbText
 10
187.4999996431435
 20
267.4999995915839
 30
0.0
 40
3.2
  1
担　当
  7
高3.2
100
AcDbText
  0
TEXT
  5
B80
330
ACA
100
AcDbEntity
  8
0
 62
     3
100
AcDbText
 10
143.4999996431435
 20
267.4999995915839
 30
0.0
 40
3.2
  1
変更・追記内容
  7
高3.2
100
AcDbText
  0
TEXT
  5
B81
330
ACA
100
AcDbEntity
  8
0
 62
     3
100
AcDbText
 10
118.6135146434827
 20
262.8294610816756
 30
0.0
 40
2.0
  1
1
  7
高2
100
AcDbText
  0
TEXT
  5
B82
330
ACA
100
AcDbEntity
  8
0
 62
     3
100
AcDbText
 10
118.3050031667254
 20
257.6596443694027
 30
0.0
 40
2.0
  1
2
  7
高2
100
AcDbText
  0
TEXT
  5
B83
330
ACA
100
AcDbEntity
  8
0
 62
     3
100
AcDbText
 10
125.4999996431435
 20
267.4999995915839
 30
0.0
 40
3.2
  1
日　付
  7
高3.2
100
AcDbText
  0
TEXT
  5
B84
330
ACA
100
AcDbEntity
  8
0
 62
     3
100
AcDbText
 10
125.4999996431435
 20
272.4999995915839
 30
0.0
 40
3.2
  1
図　　　　面　　　　略　　　　歴
  7
高3.2
100
AcDbText
  0
TEXT
  5
B85
330
ACA
100
AcDbEntity
  8
0
 62
     3
100
AcDbText
 10
115.4999996431435
 20
267.4999995915839
 30
0.0
 40
3.2
  1
記号
  7
高3.2
100
AcDbText
  0
LINE
  5
B86
330
ACA
100
AcDbEntity
  8
0
100
AcDbLine
 10
118.9999996431435
 20
260.790895591584
 30
0.0
 11
117.0999996431435
 21
257.4999995915839
 31
0.0
  0
LINE
  5
B87
330
ACA
100
AcDbEntity
  8
0
100
AcDbLine
 10
118.9999996431435
 20
260.790895591584
 30
0.0
 11
120.8999996431435
 21
257.4999995915839
 31
0.0
  0
LINE
  5
B88
330
ACA
100
AcDbEntity
  8
0
100
AcDbLine
 10
117.0999996431435
 20
257.4999995915839
 30
0.0
 11
120.8999996431435
 21
257.4999995915839
 31
0.0
  0
LINE
  5
B89
330
ACA
100
AcDbEntity
  8
0
100
AcDbLine
 10
118.9999996431435
 20
265.790896591584
 30
0.0
 11
117.0999996431435
 21
262.4999995915839
 31
0.0
  0
LINE
  5
B8A
330
ACA
100
AcDbEntity
  8
0
100
AcDbLine
 10
118.9999996431435
 20
265.790896591584
 30
0.0
 11
120.8999996431435
 21
262.4999995915839
 31
0.0
  0
LINE
  5
B8B
330
ACA
100
AcDbEntity
  8
0
100
AcDbLine
 10
117.0999996431435
 20
262.4999995915839
 30
0.0
 11
120.8999996431435
 21
262.4999995915839
 31
0.0
  0
LINE
  5
B8C
330
ACA
100
AcDbEntity
  8
0
 62
     3
100
AcDbLine
 10
113.9999996431435
 20
271.9999995915839
 30
0.0
 11
199.9999996431435
 21
271.9999995915839
 31
0.0
  0
LINE
  5
B8D
330
ACA
100
AcDbEntity
  8
0
 62
     3
100
AcDbLine
 10
113.9999996431435
 20
266.9999995915839
 30
0.0
 11
199.9999996431435
 21
266.9999995915839
 31
0.0
  0
LINE
  5
B8E
330
ACA
100
AcDbEntity
  8
0
 62
     7
100
AcDbLine
 10
113.9999996431435
 20
261.9999995915839
 30
0.0
 11
199.9999996431435
 21
261.9999995915839
 31
0.0
  0
LINE
  5
B8F
330
ACA
100
AcDbEntity
  8
0
 62
     3
100
AcDbLine
 10
113.9999996431435
 20
256.9999995915839
 30
0.0
 11
199.9999996431435
 21
256.9999995915839
 31
0.0
  0
LINE
  5
B90
330
ACA
100
AcDbEntity
  8
0
 62
     7
100
AcDbLine
 10
185.9999996431435
 20
256.9999995915839
 30
0.0
 11
185.9999996431435
 21
271.9999995915839
 31
0.0
  0
LINE
  5
B91
330
ACA
100
AcDbEntity
  8
0
 62
     7
100
AcDbLine
 10
141.9999996431435
 20
256.9999995915839
 30
0.0
 11
141.9999996431435
 21
271.9999995915839
 31
0.0
  0
LINE
  5
B92
330
ACA
100
AcDbEntity
  8
0
 62
     7
100
AcDbLine
 10
123.9999996431435
 20
256.9999995915839
 30
0.0
 11
123.9999996431435
 21
271.9999995915839
 31
0.0
  0
LINE
  5
B93
330
ACA
100
AcDbEntity
  8
0
 62
     3
100
AcDbLine
 10
113.9999996431435
 20
256.9999995915839
 30
0.0
 11
113.9999996431435
 21
276.9999995915839
 31
0.0
  0
ENDBLK
  5
B97
330
ACA
100
AcDbEntity
  8
0
100
AcDbBlockEnd
  0
BLOCK
  5
BA4
330
BA3
100
AcDbEntity
  8
0
100
AcDbBlockBegin
  2
_DotSmall
 70
     0
 10
0.0
 20
0.0
 30
0.0
  3
_DotSmall
  1

  0
LWPOLYLINE
  5
BA5
330
BA3
100
AcDbEntity
  8
0
  6
ByBlock
 62
     0
100
AcDbPolyline
 90
        2
 70
     1
 43
0.5
 10
-0.0625
 20
0.0
 42
1.0
 10
0.0625
 20
0.0
 42
1.0
  0
ENDBLK
  5
BA6
330
BA3
100
AcDbEntity
  8
0
100
AcDbBlockEnd
  0
BLOCK
  5
BA8
330
BA7
100
AcDbEntity
  8
0
 62
     1
100
AcDbBlockBegin
  2
*D4
 70
     1
 10
0.0
 20
0.0
 30
0.0
  3
*D4
  1

  0
LINE
  5
BA9
330
BA7
100
AcDbEntity
  8
0
 62
     0
370
    -2
100
AcDbLine
 10
2444.059985850925
 20
235.1174747748745
 30
0.0
 11
2444.059985850925
 21
211.6789577911886
 31
0.0
  0
LINE
  5
BAA
330
BA7
100
AcDbEntity
  8
0
 62
     0
370
    -2
100
AcDbLine
 10
2511.059987519855
 20
235.1174747748745
 30
0.0
 11
2511.059987519855
 21
211.6789577911886
 31
0.0
  0
LINE
  5
BAB
330
BA7
100
AcDbEntity
  8
0
 62
     0
370
    -2
100
AcDbLine
 10
2446.559985850925
 20
212.9289577911886
 30
0.0
 11
2508.559987519855
 21
212.9289577911886
 31
0.0
  0
INSERT
  5
BAC
330
BA7
100
AcDbEntity
  8
0
 62
     0
370
    -2
100
AcDbBlockReference
  2
_Open30
 10
2444.059985850925
 20
212.9289577911886
 30
0.0
 41
2.5
 42
2.5
 43
2.5
 50
180.0
  0
INSERT
  5
BAD
330
BA7
100
AcDbEntity
  8
0
 62
     0
370
    -2
100
AcDbBlockReference
  2
_Open30
 10
2511.059987519855
 20
212.9289577911886
 30
0.0
 41
2.5
 42
2.5
 43
2.5
  0
MTEXT
  5
BAE
330
BA7
100
AcDbEntity
  8
0
 62
     4
100
AcDbMText
 10
2477.55998668539
 20
215.0539577911886
 30
0.0
 40
3.0
 41
0.0
 71
     5
 72
     1
  1
%%C268
 73
     1
 44
1.0
1001
ACAD
1000
MTEXTBEGIN
1070
    73
1070
     1
1070
    44
1040
1.0
1070
    74
1070
     0
1000
MTEXTEND
  0
POINT
  5
BAF
330
BA7
100
AcDbEntity
  8
Defpoints
 62
     0
100
AcDbPoint
 10
2444.059985850925
 20
235.3674747748745
 30
0.0
  0
POINT
  5
BB0
330
BA7
100
AcDbEntity
  8
Defpoints
 62
     0
100
AcDbPoint
 10
2511.059987519855
 20
235.3674747748745
 30
0.0
  0
POINT
  5
BB1
330
BA7
100
AcDbEntity
  8
Defpoints
 62
     0
100
AcDbPoint
 10
2511.059987519855
 20
212.9289577911886
 30
0.0
  0
ENDBLK
  5
BB2
330
BA7
100
AcDbEntity
  8
0
 62
     1
100
AcDbBlockEnd
  0
BLOCK
  5
BB4
330
BB3
100
AcDbEntity
  8
0
 62
     1
100
AcDbBlockBegin
  2
*D5
 70
     1
 10
0.0
 20
0.0
 30
0.0
  3
*D5
  1

  0
LINE
  5
BB5
330
BB3
100
AcDbEntity
  8
0
 62
     0
370
    -2
100
AcDbLine
 10
2477.309986685391
 20
309.8754055952164
 30
0.0
 11
2454.999687500213
 21
309.8754055952164
 31
0.0
  0
LINE
  5
BB6
330
BB3
100
AcDbEntity
  8
0
 62
     0
370
    -2
100
AcDbLine
 10
2469.909986683156
 20
246.929975098509
 30
0.0
 11
2454.999687500213
 21
246.929975098509
 31
0.0
  0
LINE
  5
BB7
330
BB3
100
AcDbEntity
  8
0
 62
     0
370
    -2
100
AcDbLine
 10
2456.249687500213
 20
307.3754055952164
 30
0.0
 11
2456.249687500213
 21
249.429975098509
 31
0.0
  0
INSERT
  5
BB8
330
BB3
100
AcDbEntity
  8
0
 62
     0
370
    -2
100
AcDbBlockReference
  2
_Open30
 10
2456.249687500213
 20
309.8754055952164
 30
0.0
 41
2.5
 42
2.5
 43
2.5
 50
90.0
  0
INSERT
  5
BB9
330
BB3
100
AcDbEntity
  8
0
 62
     0
370
    -2
100
AcDbBlockReference
  2
_Open30
 10
2456.249687500213
 20
246.929975098509
 30
0.0
 41
2.5
 42
2.5
 43
2.5
 50
270.0
  0
MTEXT
  5
BBA
330
BB3
100
AcDbEntity
  8
0
 62
     4
100
AcDbMText
 10
2454.124687500213
 20
275.7995706402858
 30
0.0
 40
3.0
 41
0.0
 71
     5
 72
     1
  1
251.8
 11
0.0000000000000001
 21
1.0
 31
0.0
 73
     1
 44
1.0
1001
ACAD
1000
MTEXTBEGIN
1070
    73
1070
     1
1070
    44
1040
1.0
1070
    74
1070
     0
1000
MTEXTEND
  0
POINT
  5
BBB
330
BB3
100
AcDbEntity
  8
Defpoints
 62
     0
100
AcDbPoint
 10
2477.559986685391
 20
309.8754055952164
 30
0.0
  0
POINT
  5
BBC
330
BB3
100
AcDbEntity
  8
Defpoints
 62
     0
100
AcDbPoint
 10
2470.159986683156
 20
246.929975098509
 30
0.0
  0
POINT
  5
BBD
330
BB3
100
AcDbEntity
  8
Defpoints
 62
     0
100
AcDbPoint
 10
2456.249687500213
 20
246.929975098509
 30
0.0
  0
ENDBLK
  5
BBE
330
BB3
100
AcDbEntity
  8
0
 62
     1
100
AcDbBlockEnd
  0
BLOCK
  5
BC0
330
BBF
100
AcDbEntity
  8
0
 62
     1
100
AcDbBlockBegin
  2
*D6
 70
     1
 10
0.0
 20
0.0
 30
0.0
  3
*D6
  1

  0
LINE
  5
BC1
330
BBF
100
AcDbEntity
  8
0
 62
     0
370
    -2
100
AcDbLine
 10
2477.309986685391
 20
309.8754055952164
 30
0.0
 11
2434.862972928705
 21
309.8754055952164
 31
0.0
  0
LINE
  5
BC2
330
BBF
100
AcDbEntity
  8
0
 62
     0
370
    -2
100
AcDbLine
 10
2445.623531674022
 20
232.7504065935944
 30
0.0
 11
2434.862972928705
 21
232.7504065935944
 31
0.0
  0
LINE
  5
BC3
330
BBF
100
AcDbEntity
  8
0
 62
     0
370
    -2
100
AcDbLine
 10
2436.112972928705
 20
307.3754055952164
 30
0.0
 11
2436.112972928705
 21
235.2504065935944
 31
0.0
  0
INSERT
  5
BC4
330
BBF
100
AcDbEntity
  8
0
 62
     0
370
    -2
100
AcDbBlockReference
  2
_Open30
 10
2436.112972928705
 20
309.8754055952164
 30
0.0
 41
2.5
 42
2.5
 43
2.5
 50
90.0
  0
INSERT
  5
BC5
330
BBF
100
AcDbEntity
  8
0
 62
     0
370
    -2
100
AcDbBlockReference
  2
_Open30
 10
2436.112972928705
 20
232.7504065935944
 30
0.0
 41
2.5
 42
2.5
 43
2.5
 50
270.0
  0
MTEXT
  5
BC6
330
BBF
100
AcDbEntity
  8
0
 62
     4
100
AcDbMText
 10
2433.987972928705
 20
271.3129060944055
 30
0.0
 40
3.0
 41
0.0
 71
     5
 72
     1
  1
308.5
 11
0.0000000000000001
 21
1.0
 31
0.0
 73
     1
 44
1.0
1001
ACAD
1000
MTEXTBEGIN
1070
    73
1070
     1
1070
    44
1040
1.0
1070
    74
1070
     0
1000
MTEXTEND
  0
POINT
  5
BC7
330
BBF
100
AcDbEntity
  8
Defpoints
 62
     0
100
AcDbPoint
 10
2477.559986685391
 20
309.8754055952164
 30
0.0
  0
POINT
  5
BC8
330
BBF
100
AcDbEntity
  8
Defpoints
 62
     0
100
AcDbPoint
 10
2445.873531674021
 20
232.7504065935944
 30
0.0
  0
POINT
  5
BC9
330
BBF
100
AcDbEntity
  8
Defpoints
 62
     0
100
AcDbPoint
 10
2436.112972928705
 20
232.7504065935944
 30
0.0
  0
ENDBLK
  5
BCA
330
BBF
100
AcDbEntity
  8
0
 62
     1
100
AcDbBlockEnd
  0
BLOCK
  5
BCC
330
BCB
100
AcDbEntity
  8
0
 62
     1
100
AcDbBlockBegin
  2
*D7
 70
     1
 10
0.0
 20
0.0
 30
0.0
  3
*D7
  1

  0
LINE
  5
BCD
330
BCB
100
AcDbEntity
  8
0
 62
     0
370
    -2
100
AcDbLine
 10
2472.559986716268
 20
300.5350367698107
 30
0.0
 11
2472.559986716268
 21
321.3536157728035
 31
0.0
  0
LINE
  5
BCE
330
BCB
100
AcDbEntity
  8
0
 62
     0
370
    -2
100
AcDbLine
 10
2482.559986604511
 20
300.5350350146997
 30
0.0
 11
2482.559986604511
 21
321.3536157728035
 31
0.0
  0
LINE
  5
BCF
330
BCB
100
AcDbEntity
  8
0
 62
     0
370
    -2
100
AcDbLine
 10
2485.059986604511
 20
320.1036157728034
 30
0.0
 11
2487.559986604511
 21
320.1036157728034
 31
0.0
  0
LINE
  5
BD0
330
BCB
100
AcDbEntity
  8
0
 62
     0
370
    -2
100
AcDbLine
 10
2470.059986716269
 20
320.1036157728034
 30
0.0
 11
2457.602878701096
 21
320.1036157728034
 31
0.0
  0
LINE
  5
BD1
330
BCB
100
AcDbEntity
  8
0
 62
     0
370
    -2
100
AcDbLine
 10
2482.559986604511
 20
320.1036157728034
 30
0.0
 11
2472.559986716268
 21
320.1036157728034
 31
0.0
  0
INSERT
  5
BD2
330
BCB
100
AcDbEntity
  8
0
 62
     0
370
    -2
100
AcDbBlockReference
  2
_Open30
 10
2482.559986604511
 20
320.1036157728034
 30
0.0
 41
2.5
 42
2.5
 43
2.5
 50
180.0
  0
INSERT
  5
BD3
330
BCB
100
AcDbEntity
  8
0
 62
     0
370
    -2
100
AcDbBlockReference
  2
_Open30
 10
2472.559986716268
 20
320.1036157728034
 30
0.0
 41
2.5
 42
2.5
 43
2.5
  0
MTEXT
  5
BD4
330
BCB
100
AcDbEntity
  8
0
 62
     4
100
AcDbMText
 10
2462.227878701096
 20
322.2286157728035
 30
0.0
 40
3.0
 41
0.0
 71
     5
 72
     1
  1
E39
 73
     1
 44
1.0
1001
ACAD
1000
MTEXTBEGIN
1070
    73
1070
     1
1070
    44
1040
1.0
1070
    74
1070
     0
1000
MTEXTEND
  0
POINT
  5
BD5
330
BCB
100
AcDbEntity
  8
Defpoints
 62
     0
100
AcDbPoint
 10
2472.559986716268
 20
300.2850367698107
 30
0.0
  0
POINT
  5
BD6
330
BCB
100
AcDbEntity
  8
Defpoints
 62
     0
100
AcDbPoint
 10
2482.559986604511
 20
300.2850350146996
 30
0.0
  0
POINT
  5
BD7
330
BCB
100
AcDbEntity
  8
Defpoints
 62
     0
100
AcDbPoint
 10
2482.559986604511
 20
320.1036157728034
 30
0.0
  0
ENDBLK
  5
BD8
330
BCB
100
AcDbEntity
  8
0
 62
     1
100
AcDbBlockEnd
  0
BLOCK
  5
123F
330
123E
100
AcDbEntity
  8
0
100
AcDbBlockBegin
  2
*D8
 70
     1
 10
0.0
 20
0.0
 30
0.0
  3
*D8
  1

  0
LINE
  5
1434
330
123E
100
AcDbEntity
  8
0
 62
     0
370
    -2
100
AcDbLine
 10
1488.318028556292
 20
231.8099855584538
 30
0.0
 11
1488.318028556292
 21
252.6285645614465
 31
0.0
  0
LINE
  5
1435
330
123E
100
AcDbEntity
  8
0
 62
     0
370
    -2
100
AcDbLine
 10
1498.318028444534
 20
231.8099838033427
 30
0.0
 11
1498.318028444534
 21
252.6285645614465
 31
0.0
  0
LINE
  5
1436
330
123E
100
AcDbEntity
  8
0
 62
     0
370
    -2
100
AcDbLine
 10
1500.818028444534
 20
251.3785645614465
 30
0.0
 11
1503.318028444534
 21
251.3785645614465
 31
0.0
  0
LINE
  5
1437
330
123E
100
AcDbEntity
  8
0
 62
     0
370
    -2
100
AcDbLine
 10
1485.818028556292
 20
251.3785645614465
 30
0.0
 11
1473.36092054112
 21
251.3785645614465
 31
0.0
  0
LINE
  5
1438
330
123E
100
AcDbEntity
  8
0
 62
     0
370
    -2
100
AcDbLine
 10
1498.318028444534
 20
251.3785645614465
 30
0.0
 11
1488.318028556292
 21
251.3785645614465
 31
0.0
  0
INSERT
  5
1439
330
123E
100
AcDbEntity
  8
0
 62
     0
370
    -2
100
AcDbBlockReference
  2
_Open30
 10
1498.318028444534
 20
251.3785645614465
 30
0.0
 41
2.5
 42
2.5
 43
2.5
 50
180.0
  0
INSERT
  5
143A
330
123E
100
AcDbEntity
  8
0
 62
     0
370
    -2
100
AcDbBlockReference
  2
_Open30
 10
1488.318028556292
 20
251.3785645614465
 30
0.0
 41
2.5
 42
2.5
 43
2.5
  0
MTEXT
  5
143B
330
123E
100
AcDbEntity
  8
0
 62
     4
100
AcDbMText
 10
1477.98592054112
 20
253.5035645614465
 30
0.0
 40
3.0
 41
0.0
 71
     5
 72
     1
  1
E39
 73
     1
 44
1.0
1001
ACAD
1000
MTEXTBEGIN
1070
    73
1070
     1
1070
    44
1040
1.0
1070
    74
1070
     0
1000
MTEXTEND
  0
POINT
  5
143C
330
123E
100
AcDbEntity
  8
Defpoints
 62
     0
100
AcDbPoint
 10
1488.318028556292
 20
231.5599855584538
 30
0.0
  0
POINT
  5
143D
330
123E
100
AcDbEntity
  8
Defpoints
 62
     0
100
AcDbPoint
 10
1498.318028444534
 20
231.5599838033427
 30
0.0
  0
POINT
  5
143E
330
123E
100
AcDbEntity
  8
Defpoints
 62
     0
100
AcDbPoint
 10
1498.318028444534
 20
251.3785645614465
 30
0.0
  0
ENDBLK
  5
1240
330
123E
100
AcDbEntity
  8
0
100
AcDbBlockEnd
  0
BLOCK
  5
124D
330
124C
100
AcDbEntity
  8
0
100
AcDbBlockBegin
  2
*D9
 70
     1
 10
0.0
 20
0.0
 30
0.0
  3
*D9
  1

  0
LINE
  5
143F
330
124C
100
AcDbEntity
  8
0
 62
     0
370
    -2
100
AcDbLine
 10
1459.818027690949
 20
166.3924235635175
 30
0.0
 11
1459.818027690949
 21
142.9539065798317
 31
0.0
  0
LINE
  5
1440
330
124C
100
AcDbEntity
  8
0
 62
     0
370
    -2
100
AcDbLine
 10
1526.818029359878
 20
166.3924235635175
 30
0.0
 11
1526.818029359878
 21
142.9539065798317
 31
0.0
  0
LINE
  5
1441
330
124C
100
AcDbEntity
  8
0
 62
     0
370
    -2
100
AcDbLine
 10
1462.318027690949
 20
144.2039065798317
 30
0.0
 11
1524.318029359878
 21
144.2039065798317
 31
0.0
  0
INSERT
  5
1442
330
124C
100
AcDbEntity
  8
0
 62
     0
370
    -2
100
AcDbBlockReference
  2
_Open30
 10
1459.818027690949
 20
144.2039065798317
 30
0.0
 41
2.5
 42
2.5
 43
2.5
 50
180.0
  0
INSERT
  5
1443
330
124C
100
AcDbEntity
  8
0
 62
     0
370
    -2
100
AcDbBlockReference
  2
_Open30
 10
1526.818029359878
 20
144.2039065798317
 30
0.0
 41
2.5
 42
2.5
 43
2.5
  0
MTEXT
  5
1444
330
124C
100
AcDbEntity
  8
0
 62
     4
100
AcDbMText
 10
1493.318028525414
 20
146.3289065798317
 30
0.0
 40
3.0
 41
0.0
 71
     5
 72
     1
  1
%%C268
 73
     1
 44
1.0
1001
ACAD
1000
MTEXTBEGIN
1070
    73
1070
     1
1070
    44
1040
1.0
1070
    74
1070
     0
1000
MTEXTEND
  0
POINT
  5
1445
330
124C
100
AcDbEntity
  8
Defpoints
 62
     0
100
AcDbPoint
 10
1459.818027690949
 20
166.6424235635176
 30
0.0
  0
POINT
  5
1446
330
124C
100
AcDbEntity
  8
Defpoints
 62
     0
100
AcDbPoint
 10
1526.818029359878
 20
166.6424235635176
 30
0.0
  0
POINT
  5
1447
330
124C
100
AcDbEntity
  8
Defpoints
 62
     0
100
AcDbPoint
 10
1526.818029359878
 20
144.2039065798317
 30
0.0
  0
ENDBLK
  5
124E
330
124C
100
AcDbEntity
  8
0
100
AcDbBlockEnd
  0
BLOCK
  5
1259
330
1258
100
AcDbEntity
  8
0
100
AcDbBlockBegin
  2
*D10
 70
     1
 10
0.0
 20
0.0
 30
0.0
  3
*D10
  1

  0
LINE
  5
1448
330
1258
100
AcDbEntity
  8
0
 62
     0
370
    -2
100
AcDbLine
 10
1493.068028525414
 20
241.1503543838595
 30
0.0
 11
1470.757729340237
 21
241.1503543838595
 31
0.0
  0
LINE
  5
1449
330
1258
100
AcDbEntity
  8
0
 62
     0
370
    -2
100
AcDbLine
 10
1485.668028523179
 20
178.2049238871521
 30
0.0
 11
1470.757729340237
 21
178.2049238871521
 31
0.0
  0
LINE
  5
144A
330
1258
100
AcDbEntity
  8
0
 62
     0
370
    -2
100
AcDbLine
 10
1472.007729340237
 20
238.6503543838595
 30
0.0
 11
1472.007729340237
 21
180.7049238871521
 31
0.0
  0
INSERT
  5
144B
330
1258
100
AcDbEntity
  8
0
 62
     0
370
    -2
100
AcDbBlockReference
  2
_Open30
 10
1472.007729340237
 20
241.1503543838595
 30
0.0
 41
2.5
 42
2.5
 43
2.5
 50
90.0
  0
INSERT
  5
144C
330
1258
100
AcDbEntity
  8
0
 62
     0
370
    -2
100
AcDbBlockReference
  2
_Open30
 10
1472.007729340237
 20
178.2049238871521
 30
0.0
 41
2.5
 42
2.5
 43
2.5
 50
270.0
  0
MTEXT
  5
144D
330
1258
100
AcDbEntity
  8
0
 62
     4
100
AcDbMText
 10
1469.882729340237
 20
207.0745194289289
 30
0.0
 40
3.0
 41
0.0
 71
     5
 72
     1
  1
251.8
 11
0.0000000000000001
 21
1.0
 31
0.0
 73
     1
 44
1.0
1001
ACAD
1000
MTEXTBEGIN
1070
    73
1070
     1
1070
    44
1040
1.0
1070
    74
1070
     0
1000
MTEXTEND
  0
POINT
  5
144E
330
1258
100
AcDbEntity
  8
Defpoints
 62
     0
100
AcDbPoint
 10
1493.318028525414
 20
241.1503543838595
 30
0.0
  0
POINT
  5
144F
330
1258
100
AcDbEntity
  8
Defpoints
 62
     0
100
AcDbPoint
 10
1485.918028523179
 20
178.2049238871521
 30
0.0
  0
POINT
  5
1450
330
1258
100
AcDbEntity
  8
Defpoints
 62
     0
100
AcDbPoint
 10
1472.007729340237
 20
178.2049238871521
 30
0.0
  0
ENDBLK
  5
125A
330
1258
100
AcDbEntity
  8
0
100
AcDbBlockEnd
  0
BLOCK
  5
1265
330
1264
100
AcDbEntity
  8
0
100
AcDbBlockBegin
  2
*D11
 70
     1
 10
0.0
 20
0.0
 30
0.0
  3
*D11
  1

  0
LINE
  5
145B
330
1264
100
AcDbEntity
  8
0
 62
     0
370
    -2
100
AcDbLine
 10
1493.068028525414
 20
241.1503543838595
 30
0.0
 11
1456.081441025498
 21
241.1503543838595
 31
0.0
  0
LINE
  5
145C
330
1264
100
AcDbEntity
  8
0
 62
     0
370
    -2
100
AcDbLine
 10
1461.381573514045
 20
164.0253553822375
 30
0.0
 11
1456.081441025498
 21
164.0253553822375
 31
0.0
  0
LINE
  5
145D
330
1264
100
AcDbEntity
  8
0
 62
     0
370
    -2
100
AcDbLine
 10
1457.331441025498
 20
238.6503543838595
 30
0.0
 11
1457.331441025498
 21
166.5253553822374
 31
0.0
  0
INSERT
  5
145E
330
1264
100
AcDbEntity
  8
0
 62
     0
370
    -2
100
AcDbBlockReference
  2
_Open30
 10
1457.331441025498
 20
241.1503543838595
 30
0.0
 41
2.5
 42
2.5
 43
2.5
 50
90.0
  0
INSERT
  5
145F
330
1264
100
AcDbEntity
  8
0
 62
     0
370
    -2
100
AcDbBlockReference
  2
_Open30
 10
1457.331441025498
 20
164.0253553822375
 30
0.0
 41
2.5
 42
2.5
 43
2.5
 50
270.0
  0
MTEXT
  5
1460
330
1264
100
AcDbEntity
  8
0
 62
     4
100
AcDbMText
 10
1455.206441025498
 20
202.5878548830485
 30
0.0
 40
3.0
 41
0.0
 71
     5
 72
     1
  1
308.5
 11
0.0000000000000001
 21
1.0
 31
0.0
 73
     1
 44
1.0
1001
ACAD
1000
MTEXTBEGIN
1070
    73
1070
     1
1070
    44
1040
1.0
1070
    74
1070
     0
1000
MTEXTEND
  0
POINT
  5
1461
330
1264
100
AcDbEntity
  8
Defpoints
 62
     0
100
AcDbPoint
 10
1493.318028525414
 20
241.1503543838595
 30
0.0
  0
POINT
  5
1462
330
1264
100
AcDbEntity
  8
Defpoints
 62
     0
100
AcDbPoint
 10
1461.631573514045
 20
164.0253553822375
 30
0.0
  0
POINT
  5
1463
330
1264
100
AcDbEntity
  8
Defpoints
 62
     0
100
AcDbPoint
 10
1457.331441025498
 20
164.0253553822375
 30
0.0
  0
ENDBLK
  5
1266
330
1264
100
AcDbEntity
  8
0
100
AcDbBlockEnd
  0
BLOCK
  5
1466
330
1465
100
AcDbEntity
  8
0
100
AcDbBlockBegin
  2
*D12
 70
     1
 10
0.0
 20
0.0
 30
0.0
  3
*D12
  1

  0
LINE
  5
14A9
330
1465
100
AcDbEntity
  8
0
 62
     0
370
    -2
100
AcDbLine
 10
1493.068028525413
 20
241.1503543838594
 30
0.0
 11
1450.607021674742
 21
241.1503543838594
 31
0.0
  0
LINE
  5
14AA
330
1465
100
AcDbEntity
  8
0
 62
     0
370
    -2
100
AcDbLine
 10
1493.068028525414
 20
152.4674235712471
 30
0.0
 11
1450.607021674742
 21
152.4674235712472
 31
0.0
  0
LINE
  5
14AB
330
1465
100
AcDbEntity
  8
0
 62
     0
370
    -2
100
AcDbLine
 10
1451.857021674742
 20
238.6503543838594
 30
0.0
 11
1451.857021674742
 21
154.9674235712472
 31
0.0
  0
INSERT
  5
14AC
330
1465
100
AcDbEntity
  8
0
 62
     0
370
    -2
100
AcDbBlockReference
  2
_Open30
 10
1451.857021674742
 20
241.1503543838594
 30
0.0
 41
2.5
 42
2.5
 43
2.5
 50
90.0
  0
INSERT
  5
14AD
330
1465
100
AcDbEntity
  8
0
 62
     0
370
    -2
100
AcDbBlockReference
  2
_Open30
 10
1451.857021674742
 20
152.4674235712472
 30
0.0
 41
2.5
 42
2.5
 43
2.5
 50
270.0
  0
MTEXT
  5
14AE
330
1465
100
AcDbEntity
  8
0
 62
     4
100
AcDbMText
 10
1449.732021674742
 20
195.9196802122178
 30
0.0
 40
3.0
 41
0.0
 71
     5
 72
     1
  1
354.7
 11
0.0000000000000001
 21
1.0
 31
0.0
 73
     1
 44
1.0
1001
ACAD
1000
MTEXTBEGIN
1070
    73
1070
     1
1070
    44
1040
1.0
1070
    74
1070
     0
1000
MTEXTEND
  0
POINT
  5
14AF
330
1465
100
AcDbEntity
  8
Defpoints
 62
     0
100
AcDbPoint
 10
1493.318028525413
 20
241.1503543838594
 30
0.0
  0
POINT
  5
14B0
330
1465
100
AcDbEntity
  8
Defpoints
 62
     0
100
AcDbPoint
 10
1493.318028525414
 20
152.4674235712471
 30
0.0
  0
POINT
  5
14B1
330
1465
100
AcDbEntity
  8
Defpoints
 62
     0
100
AcDbPoint
 10
1451.857021674742
 20
152.4674235712472
 30
0.0
  0
ENDBLK
  5
1467
330
1465
100
AcDbEntity
  8
0
100
AcDbBlockEnd
  0
ENDSEC
  0
SECTION
  2
ENTITIES
  0
LINE
  5
F10
330
1F
100
AcDbEntity
  8
0
 62
     7
100
AcDbLine
 10
1546.450894766213
 20
133.3300673630854
 30
0.0
 11
1618.841439583265
 21
133.3300673630854
 31
0.0
  0
LINE
  5
F11
330
1F
100
AcDbEntity
  8
0
 62
     7
100
AcDbLine
 10
1546.450894766213
 20
138.8300673630856
 30
0.0
 11
1618.841439583265
 21
138.8300673630856
 31
0.0
  0
LINE
  5
F12
330
1F
100
AcDbEntity
  8
0
 62
     7
100
AcDbLine
 10
1546.450894766213
 20
149.8300673630859
 30
0.0
 11
1618.841439583265
 21
149.8300673630859
 31
0.0
  0
LINE
  5
F13
330
1F
100
AcDbEntity
  8
0
 62
     7
100
AcDbLine
 10
1556.841885235882
 20
155.3300673630857
 30
0.0
 11
1618.841439583265
 21
155.3300673630857
 31
0.0
  0
LINE
  5
F14
330
1F
100
AcDbEntity
  8
0
 62
     7
100
AcDbLine
 10
1556.841885235882
 20
160.8300673630858
 30
0.0
 11
1618.841439583265
 21
160.8300673630858
 31
0.0
  0
LINE
  5
F15
330
1F
100
AcDbEntity
  8
0
 62
     7
100
AcDbLine
 10
1556.841885235882
 20
166.3300673630858
 30
0.0
 11
1618.841439583265
 21
166.3300673630858
 31
0.0
  0
LINE
  5
F16
330
1F
100
AcDbEntity
  8
0
 62
     7
100
AcDbLine
 10
1556.841885235882
 20
171.8300673630857
 30
0.0
 11
1618.841439583265
 21
171.8300673630857
 31
0.0
  0
LINE
  5
F17
330
1F
100
AcDbEntity
  8
0
 62
     7
100
AcDbLine
 10
1546.450894766213
 20
177.3300673630858
 30
0.0
 11
1618.841439583265
 21
177.3300673630858
 31
0.0
  0
LINE
  5
F18
330
1F
100
AcDbEntity
  8
0
 62
     7
100
AcDbLine
 10
1546.450894766213
 20
182.8300673630858
 30
0.0
 11
1618.841439583265
 21
182.8300673630858
 31
0.0
  0
LINE
  5
F19
330
1F
100
AcDbEntity
  8
0
 62
     7
100
AcDbLine
 10
1546.450894766213
 20
188.3300673630858
 30
0.0
 11
1618.841439583265
 21
188.3300673630858
 31
0.0
  0
LINE
  5
F1A
330
1F
100
AcDbEntity
  8
0
 62
     7
100
AcDbLine
 10
1546.450894766213
 20
193.8300673630856
 30
0.0
 11
1618.841439583265
 21
193.8300673630856
 31
0.0
  0
LINE
  5
F1B
330
1F
100
AcDbEntity
  8
0
 62
     7
100
AcDbLine
 10
1546.450894766213
 20
199.3300673630858
 30
0.0
 11
1618.841439583265
 21
199.3300673630858
 31
0.0
  0
LINE
  5
F1C
330
1F
100
AcDbEntity
  8
0
 62
     7
100
AcDbLine
 10
1546.450894766213
 20
204.8300673630857
 30
0.0
 11
1618.841439583265
 21
204.8300673630857
 31
0.0
  0
LINE
  5
F1D
330
1F
100
AcDbEntity
  8
0
 62
     7
100
AcDbLine
 10
1546.450894766213
 20
210.3300673630856
 30
0.0
 11
1618.841439583265
 21
210.3300673630856
 31
0.0
  0
LINE
  5
F1E
330
1F
100
AcDbEntity
  8
0
 62
     7
100
AcDbLine
 10
1546.450894766213
 20
215.8300673630858
 30
0.0
 11
1618.841439583265
 21
215.8300673630858
 31
0.0
  0
TEXT
  5
F1F
330
1F
100
AcDbEntity
  8
0
 62
     3
100
AcDbText
 10
1547.950894766213
 20
139.8300673630856
 30
0.0
 40
3.2
  1
球　寿　命
  7
高3.2
100
AcDbText
  0
TEXT
  5
F20
330
1F
100
AcDbEntity
  8
0
 62
     3
100
AcDbText
 10
1547.950894766213
 20
134.3300673630854
 30
0.0
 40
3.2
  1
使用環境温度
  7
高3.2
100
AcDbText
  0
TEXT
  5
F21
330
1F
100
AcDbEntity
  8
0
 62
     3
100
AcDbText
 10
1547.950894766213
 20
178.3300673630858
 30
0.0
 40
3.2
  1
固有エネルギー消費効率
 41
0.5
  7
高3.2
100
AcDbText
  0
TEXT
  5
F22
330
1F
100
AcDbEntity
  8
0
 62
     3
100
AcDbText
 10
1547.950894766213
 20
183.8300673630858
 30
0.0
 40
3.2
  1
定格消費電力
  7
高3.2
100
AcDbText
  0
TEXT
  5
F23
330
1F
100
AcDbEntity
  8
0
 62
     3
100
AcDbText
 10
1547.950894766213
 20
189.3300673630857
 30
0.0
 40
3.2
  1
定格　電流
  7
高3.2
100
AcDbText
  0
TEXT
  5
F24
330
1F
100
AcDbEntity
  8
0
 62
     3
100
AcDbText
 10
1547.950894766213
 20
194.8300673630857
 30
0.0
 40
3.2
  1
入力電圧範囲
 41
0.9
  7
高3.2
100
AcDbText
  0
TEXT
  5
F25
330
1F
100
AcDbEntity
  8
0
 62
     3
100
AcDbText
 10
1547.950894766213
 20
200.3300673630858
 30
0.0
 40
3.2
  1
周　波　数
  7
高3.2
100
AcDbText
  0
TEXT
  5
F26
330
1F
100
AcDbEntity
  8
0
 62
     3
100
AcDbText
 10
1547.950894766213
 20
205.8300673630859
 30
0.0
 40
3.2
  1
定格　電圧
  7
高3.2
100
AcDbText
  0
TEXT
  5
F27
330
1F
100
AcDbEntity
  8
0
 62
     3
100
AcDbText
 10
1547.950894766213
 20
211.3300673630856
 30
0.0
 40
3.2
  1
照射　角度
  7
高3.2
100
AcDbText
  0
TEXT
  5
F28
330
1F
100
AcDbEntity
  8
0
 62
     3
100
AcDbText
 10
1547.950894766213
 20
222.330067363086
 30
0.0
 40
3.2
  1
光源色　[色温度]
 41
0.7
  7
高3.2
100
AcDbText
  0
TEXT
  5
F29
330
1F
100
AcDbEntity
  8
0
 62
     3
100
AcDbText
 10
1547.950894766213
 20
227.8300673630857
 30
0.0
 40
3.2
  1
定格　光束
  7
高3.2
100
AcDbText
  0
TEXT
  5
F2A
330
1F
100
AcDbEntity
  8
0
 62
     3
100
AcDbText
 10
1547.950894766213
 20
233.3300673630859
 30
0.0
 40
3.2
  1
光　　　源
  7
高3.2
100
AcDbText
  0
TEXT
  5
F2B
330
1F
100
AcDbEntity
  8
0
 62
     3
100
AcDbText
 10
1547.950894766213
 20
216.8300673630857
 30
0.0
 40
3.2
  1
平均演色評価数
 41
0.8
  7
高3.2
100
AcDbText
  0
TEXT
  5
F2C
330
1F
100
AcDbEntity
  8
0
 62
     3
100
AcDbText
 10
1547.950894766213
 20
172.8300673630856
 30
0.0
 40
3.2
  1
照度
  7
高3.2
100
AcDbText
  0
LINE
  5
F2D
330
1F
100
AcDbEntity
  8
0
 62
     7
100
AcDbLine
 10
1546.450894766213
 20
221.3300673630858
 30
0.0
 11
1618.841439583265
 21
221.3300673630858
 31
0.0
  0
LINE
  5
F2E
330
1F
100
AcDbEntity
  8
0
 62
     7
100
AcDbLine
 10
1546.450894766213
 20
226.8300673630857
 30
0.0
 11
1618.841439583265
 21
226.8300673630857
 31
0.0
  0
LINE
  5
F2F
330
1F
100
AcDbEntity
  8
0
 62
     7
100
AcDbLine
 10
1546.450894766213
 20
232.330067363086
 30
0.0
 11
1618.841439583265
 21
232.330067363086
 31
0.0
  0
LINE
  5
F30
330
1F
100
AcDbEntity
  8
0
 62
     7
100
AcDbLine
 10
1546.450894766213
 20
237.830067363086
 30
0.0
 11
1618.841439583265
 21
237.830067363086
 31
0.0
  0
TEXT
  5
F31
330
1F
100
AcDbEntity
  8
0
 62
     3
100
AcDbText
 10
1547.950894766213
 20
238.830067363086
 30
0.0
 40
3.2
  1
使用　場所
  7
高3.2
100
AcDbText
  0
LINE
  5
F32
330
1F
100
AcDbEntity
  8
0
 62
     7
100
AcDbLine
 10
1546.450894766213
 20
243.330067363086
 30
0.0
 11
1618.841439583265
 21
243.330067363086
 31
0.0
  0
LINE
  5
F33
330
1F
100
AcDbEntity
  8
0
100
AcDbLine
 10
1556.841885235882
 20
177.3300673630858
 30
0.0
 11
1556.841885235882
 21
149.8300673630859
 31
0.0
  0
TEXT
  5
F34
330
1F
100
AcDbEntity
  8
0
 62
     3
100
AcDbText
 10
1558.341885235882
 20
172.8300673630856
 30
0.0
 40
3.2
  1
1m
  7
高3.2
100
AcDbText
  0
TEXT
  5
F35
330
1F
100
AcDbEntity
  8
0
 62
     3
100
AcDbText
 10
1558.341885235882
 20
167.3300673630858
 30
0.0
 40
3.2
  1
2m
  7
高3.2
100
AcDbText
  0
TEXT
  5
F36
330
1F
100
AcDbEntity
  8
0
 62
     3
100
AcDbText
 10
1558.341885235882
 20
161.8300673630858
 30
0.0
 40
3.2
  1
3m
  7
高3.2
100
AcDbText
  0
TEXT
  5
F37
330
1F
100
AcDbEntity
  8
0
 62
     3
100
AcDbText
 10
1558.341885235882
 20
156.3300673630857
 30
0.0
 40
3.2
  1
4m
  7
高3.2
100
AcDbText
  0
TEXT
  5
F38
330
1F
100
AcDbEntity
  8
0
 62
     3
100
AcDbText
 10
1558.341885235882
 20
150.8300673630859
 30
0.0
 40
3.2
  1
5m
  7
高3.2
100
AcDbText
  0
TEXT
  5
F39
330
1F
100
AcDbEntity
  8
0
 62
     3
100
AcDbText
 10
1572.878990338977
 20
238.830067363086
 30
0.0
 40
3.2
  1
屋内型
 41
0.8
  7
高3.2
100
AcDbText
  0
TEXT
  5
F3A
330
1F
100
AcDbEntity
  8
0
 62
     3
100
AcDbText
 10
1572.878990338977
 20
233.3300673630859
 30
0.0
 40
3.2
  1
LED
 41
0.8
  7
高3.2
100
AcDbText
  0
TEXT
  5
F3B
330
1F
100
AcDbEntity
  8
0
 62
     3
100
AcDbText
 10
1572.878990338977
 20
227.8300673630857
 30
0.0
 40
3.2
  1
21300Lm
 41
0.8
  7
高3.2
100
AcDbText
  0
TEXT
  5
F3C
330
1F
100
AcDbEntity
  8
0
 62
     3
100
AcDbText
 10
1572.878990338977
 20
222.330067363086
 30
0.0
 40
3.2
  1
昼白色　[5000K]
 41
0.8
  7
高3.2
100
AcDbText
  0
TEXT
  5
F3D
330
1F
100
AcDbEntity
  8
0
 62
     3
100
AcDbText
 10
1572.878990338977
 20
216.8300673630857
 30
0.0
 40
3.2
  1
Ra73
 41
0.8
  7
高3.2
100
AcDbText
  0
TEXT
  5
F3E
330
1F
100
AcDbEntity
  8
0
 62
     3
100
AcDbText
 10
1572.878990338977
 20
211.3300673630856
 30
0.0
 40
3.2
  1
110\U+00B0[1/2ビーム角] 180\U+00B0[1/10ビーム角]
 41
0.55
  7
高3.2
100
AcDbText
  0
TEXT
  5
F3F
330
1F
100
AcDbEntity
  8
0
 62
     3
100
AcDbText
 10
1572.878990338977
 20
205.8300673630859
 30
0.0
 40
3.2
  1
AC100V (200V)
 41
0.8
  7
高3.2
100
AcDbText
  0
TEXT
  5
F40
330
1F
100
AcDbEntity
  8
0
 62
     3
100
AcDbText
 10
1572.878990338977
 20
200.3300673630858
 30
0.0
 40
3.2
  1
50/60Hz
 41
0.8
  7
高3.2
100
AcDbText
  0
TEXT
  5
F41
330
1F
100
AcDbEntity
  8
0
 62
     3
100
AcDbText
 10
1572.878990338977
 20
194.8300673630857
 30
0.0
 40
3.2
  1
AC90～265V
 41
0.8
  7
高3.2
100
AcDbText
  0
TEXT
  5
F42
330
1F
100
AcDbEntity
  8
0
 62
     3
100
AcDbText
 10
1572.878990338977
 20
189.3300673630857
 30
0.0
 40
3.2
  1
1.32A (0.66A)
 41
0.8
  7
高3.2
100
AcDbText
  0
TEXT
  5
F43
330
1F
100
AcDbEntity
  8
0
 62
     3
100
AcDbText
 10
1572.878990338977
 20
183.8300673630858
 30
0.0
 40
3.2
  1
130W (127W)
 41
0.8
  7
高3.2
100
AcDbText
  0
TEXT
  5
F44
330
1F
100
AcDbEntity
  8
0
 62
     3
100
AcDbText
 10
1572.878990338977
 20
178.3300673630858
 30
0.0
 40
3.2
  1
163.8Lm/W (167.7Lm/W)
 41
0.7
  7
高3.2
100
AcDbText
  0
TEXT
  5
F45
330
1F
100
AcDbEntity
  8
0
 62
     3
100
AcDbText
 10
1572.878990338977
 20
172.8300673630856
 30
0.0
 40
3.2
  1
6550Lx
 41
0.8
  7
高3.2
100
AcDbText
  0
TEXT
  5
F46
330
1F
100
AcDbEntity
  8
0
 62
     3
100
AcDbText
 10
1572.878990338977
 20
167.3300673630858
 30
0.0
 40
3.2
  1
1720Lx
 41
0.8
  7
高3.2
100
AcDbText
  0
TEXT
  5
F47
330
1F
100
AcDbEntity
  8
0
 62
     3
100
AcDbText
 10
1572.878990338977
 20
161.8300673630858
 30
0.0
 40
3.2
  1
800Lx
 41
0.8
  7
高3.2
100
AcDbText
  0
TEXT
  5
F48
330
1F
100
AcDbEntity
  8
0
 62
     3
100
AcDbText
 10
1572.878990338977
 20
156.3300673630857
 30
0.0
 40
3.2
  1
470Lx
 41
0.8
  7
高3.2
100
AcDbText
  0
TEXT
  5
F49
330
1F
100
AcDbEntity
  8
0
 62
     3
100
AcDbText
 10
1572.878990338977
 20
150.8300673630859
 30
0.0
 40
3.2
  1
320Lx
 41
0.8
  7
高3.2
100
AcDbText
  0
TEXT
  5
F4A
330
1F
100
AcDbEntity
  8
0
 62
     3
100
AcDbText
 10
1572.878990338977
 20
139.8300673630856
 30
0.0
 40
3.2
  1
60000時間
 41
0.8
  7
高3.2
100
AcDbText
  0
TEXT
  5
F4B
330
1F
100
AcDbEntity
  8
0
 62
     3
100
AcDbText
 10
1572.878990338977
 20
134.3300673630854
 30
0.0
 40
3.2
  1
-30～50℃
 41
0.8
  7
高3.2
100
AcDbText
  0
LINE
  5
F4C
330
1F
100
AcDbEntity
  8
0
 62
     3
100
AcDbLine
 10
1546.450894766215
 20
248.830067363086
 30
0.0
 11
1546.450894766213
 21
122.3300673630855
 31
0.0
  0
LINE
  5
F4D
330
1F
100
AcDbEntity
  8
0
 62
     7
100
AcDbLine
 10
1571.378990338978
 20
122.3300673630855
 30
0.0
 11
1571.378990338977
 21
248.830067363086
 31
0.0
  0
LINE
  5
F4E
330
1F
100
AcDbEntity
  8
0
 62
     3
100
AcDbLine
 10
1618.841439583265
 20
122.3300673630855
 30
0.0
 11
1618.841439583265
 21
248.830067363086
 31
0.0
  0
TEXT
  5
F4F
330
1F
100
AcDbEntity
  8
0
 62
     3
100
AcDbText
 10
1562.060784319141
 20
253.5638792401158
 30
0.0
 40
4.5
  1
主　　仕　　様
  7
高4.5
100
AcDbText
  0
LINE
  5
F50
330
1F
100
AcDbEntity
  8
0
100
AcDbLine
 10
1560.959869951385
 20
252.6981261562731
 30
0.0
 11
1599.552090231071
 21
252.6981261562731
 31
0.0
  0
TEXT
  5
F51
330
1F
100
AcDbEntity
  8
0
 62
     3
100
AcDbText
 10
1547.950894766213
 20
244.330067363086
 30
0.0
 40
3.2
  1
型　　　式
  7
高3.2
100
AcDbText
  0
LINE
  5
F52
330
1F
100
AcDbEntity
  8
0
 62
     3
100
AcDbLine
 10
1546.450894766213
 20
248.830067363086
 30
0.0
 11
1618.841439583265
 21
248.830067363086
 31
0.0
  0
TEXT
  5
F53
330
1F
100
AcDbEntity
  8
0
 62
     3
100
AcDbText
 10
1572.878990338977
 20
244.330067363086
 30
0.0
 40
3.2
  1
L125B-E39-HM110-50K
 41
0.8
  7
高3.2
100
AcDbText
  0
TEXT
  5
F54
330
1F
100
AcDbEntity
  8
0
 62
     3
100
AcDbText
 10
1572.878990338977
 20
123.3300673630857
 30
0.0
 40
3.2
  1
1.7kg
 41
0.8
  7
高3.2
100
AcDbText
  0
TEXT
  5
F55
330
1F
100
AcDbEntity
  8
0
 62
     3
100
AcDbText
 10
1547.950894766213
 20
123.3300673630857
 30
0.0
 40
3.2
  1
本体　質量
  7
高3.2
100
AcDbText
  0
LINE
  5
F56
330
1F
100
AcDbEntity
  8
0
 62
     3
100
AcDbLine
 10
1546.450894766213
 20
122.3300673630855
 30
0.0
 11
1618.841439583265
 21
122.3300673630855
 31
0.0
  0
LINE
  5
F57
330
1F
100
AcDbEntity
  8
0
 62
     7
100
AcDbLine
 10
1546.450894766213
 20
127.8300673630855
 30
0.0
 11
1618.841439583265
 21
127.8300673630855
 31
0.0
  0
TEXT
  5
F58
330
1F
100
AcDbEntity
  8
0
 62
     3
100
AcDbText
 10
1547.950894766213
 20
128.8300673630854
 30
0.0
 40
3.2
  1
口　　　金
  7
高3.2
100
AcDbText
  0
TEXT
  5
F59
330
1F
100
AcDbEntity
  8
0
 62
     3
100
AcDbText
 10
1572.878990338977
 20
128.8300673630854
 30
0.0
 40
3.2
  1
E39
 41
0.8
  7
高3.2
100
AcDbText
  0
LINE
  5
F5A
330
1F
100
AcDbEntity
  8
0
100
AcDbLine
 10
1431.358430251821
 20
148.7630152359564
 30
0.0
 11
1430.870503421821
 21
148.7630152359564
 31
0.0
  0
LINE
  5
F5B
330
1F
100
AcDbEntity
  8
0
 62
     3
100
AcDbLine
 10
1442.87050342182
 20
287.2630152359564
 30
0.0
 11
1442.87050342182
 21
10.26301523595634
 31
0.0
  0
LINE
  5
F5C
330
1F
100
AcDbEntity
  8
0
 62
     3
100
AcDbLine
 10
1622.870503421821
 20
10.26301523595634
 30
0.0
 11
1622.870503421821
 21
287.2630152359564
 31
0.0
  0
LINE
  5
F5D
330
1F
100
AcDbEntity
  8
0
 62
     3
100
AcDbLine
 10
1442.87050342182
 20
10.26301523595634
 30
0.0
 11
1622.870503421821
 21
10.26301523595634
 31
0.0
  0
LINE
  5
F5E
330
1F
100
AcDbEntity
  8
0
 62
     3
100
AcDbLine
 10
1570.87050342182
 20
10.26301523595634
 30
0.0
 11
1570.87050342182
 21
50.26301523595634
 31
0.0
  0
LINE
  5
F5F
330
1F
100
AcDbEntity
  8
0
 62
     3
100
AcDbLine
 10
1583.87050342182
 20
20.26301523595634
 30
0.0
 11
1583.87050342182
 21
48.26301523595635
 31
0.0
  0
LINE
  5
F60
330
1F
100
AcDbEntity
  8
0
 62
     3
100
AcDbLine
 10
1543.87050342182
 20
20.26301523595634
 30
0.0
 11
1543.87050342182
 21
34.26301523595635
 31
0.0
  0
LINE
  5
F61
330
1F
100
AcDbEntity
  8
0
 62
     3
100
AcDbLine
 10
1553.87050342182
 20
34.26301523595635
 30
0.0
 11
1553.87050342182
 21
10.26301523595634
 31
0.0
  0
LINE
  5
F62
330
1F
100
AcDbEntity
  8
0
 62
     3
100
AcDbLine
 10
1524.87050342182
 20
50.26301523595634
 30
0.0
 11
1524.87050342182
 21
27.26301523595635
 31
0.0
  0
LINE
  5
F63
330
1F
100
AcDbEntity
  8
0
 62
     3
100
AcDbLine
 10
1583.87050342182
 20
48.26301523595635
 30
0.0
 11
1583.87050342182
 21
50.26301523595634
 31
0.0
  0
LINE
  5
F64
330
1F
100
AcDbEntity
  8
0
 62
     3
100
AcDbLine
 10
1596.87050342182
 20
27.26301523595635
 30
0.0
 11
1596.87050342182
 21
50.26301523595634
 31
0.0
  0
LINE
  5
F65
330
1F
100
AcDbEntity
  8
0
 62
     3
100
AcDbLine
 10
1622.870503421821
 20
50.26301523595634
 30
0.0
 11
1511.62506878182
 21
50.26301523595634
 31
0.0
  0
LINE
  5
F66
330
1F
100
AcDbEntity
  8
0
 62
     3
100
AcDbLine
 10
1622.870503421821
 20
56.26301523595632
 30
0.0
 11
1570.87050342182
 21
56.26301523595632
 31
0.0
  0
LINE
  5
F67
330
1F
100
AcDbEntity
  8
0
 62
     3
100
AcDbLine
 10
1622.870503421821
 20
41.26301523595635
 30
0.0
 11
1511.62506878182
 21
41.26301523595635
 31
0.0
  0
LINE
  5
F68
330
1F
100
AcDbEntity
  8
0
 62
     3
100
AcDbLine
 10
1622.870503421821
 20
27.26301523595635
 30
0.0
 11
1511.62506878182
 21
27.26301523595635
 31
0.0
  0
LINE
  5
F69
330
1F
100
AcDbEntity
  8
0
 62
     3
100
AcDbLine
 10
1622.870503421821
 20
20.26301523595634
 30
0.0
 11
1511.56706092182
 21
20.26301523595634
 31
0.0
  0
LINE
  5
F6A
330
1F
100
AcDbEntity
  8
0
 62
     3
100
AcDbLine
 10
1609.87050342182
 20
27.26301523595635
 30
0.0
 11
1609.87050342182
 21
50.26301523595634
 31
0.0
  0
LINE
  5
F6B
330
1F
100
AcDbEntity
  8
0
 62
     3
100
AcDbLine
 10
1511.62506878182
 20
50.26301523595634
 30
0.0
 11
1511.62506878182
 21
10.26301523595634
 31
0.0
  0
LINE
  5
F6C
330
1F
100
AcDbEntity
  8
0
 62
     3
100
AcDbLine
 10
1570.87050342182
 20
34.26301523595635
 30
0.0
 11
1511.62506878182
 21
34.26301523595635
 31
0.0
  0
LINE
  5
F6D
330
1F
100
AcDbEntity
  8
0
 62
     3
100
AcDbLine
 10
1554.14882835182
 20
15.0958764959563
 30
0.0
 11
1570.87050342182
 21
15.0958764959563
 31
0.0
  0
LINE
  5
F6E
330
1F
100
AcDbEntity
  8
0
 62
     3
100
AcDbLine
 10
1557.870503421821
 20
41.26301523595635
 30
0.0
 11
1565.870503421821
 21
41.26301523595635
 31
0.0
  0
TEXT
  5
F6F
330
1F
100
AcDbEntity
  8
0
 62
     3
100
AcDbText
 10
1555.034828835136
 20
29.33611208932166
 30
0.0
 40
2.5
  1
白
  7
高2.5
100
AcDbText
  0
TEXT
  5
F70
330
1F
100
AcDbEntity
  8
0
 62
     3
100
AcDbText
 10
1526.066872117072
 20
27.7931396316103
 30
0.0
 40
2.5
  1
筒体:PC
  7
高2.5
100
AcDbText
  0
TEXT
  5
F71
330
1F
100
AcDbEntity
  8
0
 62
     3
100
AcDbText
 10
1526.33177987177
 20
42.57526475971423
 30
0.0
 40
4.5
  1
ハイスペックハイディスク電源内蔵型125W
 41
0.4
  7
高4.5
100
AcDbText
1001
ACAD
1000
ACAD_MTEXT_DEFINED_HEIGHT_BEGIN
1070
    46
1040
0.0
1000
ACAD_MTEXT_DEFINED_HEIGHT_END
  0
TEXT
  5
F72
330
1F
100
AcDbEntity
  8
0
 62
     3
100
AcDbText
 10
1612.936092515294
 20
46.77670733465993
 30
0.0
 40
2.0
  1
DEF
  7
高2
100
AcDbText
  0
TEXT
  5
F73
330
1F
100
AcDbEntity
  8
0
 62
     3
100
AcDbText
 10
1598.996994161586
 20
46.77670733465984
 30
0.0
 40
2.0
  1
DESN
  7
高2
100
AcDbText
  0
TEXT
  5
F74
330
1F
100
AcDbEntity
  8
0
 62
     3
100
AcDbText
 10
1572.742627221586
 20
46.77670733465993
 30
0.0
 40
2.0
  1
APPD
  7
高2
100
AcDbText
  0
TEXT
  5
F75
330
1F
100
AcDbEntity
  8
0
 62
     3
100
AcDbText
 10
1585.85536332182
 20
46.77670733465996
 30
0.0
 40
2.0
  1
CHCK
  7
高2
100
AcDbText
  0
TEXT
  5
F76
330
1F
100
AcDbEntity
  8
0
 62
     3
100
AcDbText
 10
1544.797669060972
 20
24.43141405918708
 30
0.0
 40
2.0
  1
SCALE
 41
0.8
  7
高2
100
AcDbText
  0
TEXT
  5
F77
330
1F
100
AcDbEntity
  8
0
 62
     3
100
AcDbText
 10
1513.309647484867
 20
24.43141405918708
 30
0.0
 40
2.0
  1
3AD　ANGLE
 41
1.5
  7
高2
100
AcDbText
  0
TEXT
  5
F78
330
1F
100
AcDbEntity
  8
0
 62
     3
100
AcDbText
 10
1544.067074751822
 20
31.18295212814417
 30
0.0
 40
2.0
  1
REMARKS
 41
0.7
  7
高2
100
AcDbText
  0
TEXT
  5
F79
330
1F
100
AcDbEntity
  8
0
 62
     3
100
AcDbText
 10
1513.092739131821
 20
31.26301523595635
 30
0.0
 40
2.0
  1
MATERIAL
 41
0.7
  7
高2
100
AcDbText
  0
TEXT
  5
F7A
330
1F
100
AcDbEntity
  8
0
 62
     3
100
AcDbText
 10
1513.669226334575
 20
38.26301523595635
 30
0.0
 40
2.0
  1
MODEL
  7
高2
100
AcDbText
  0
TEXT
  5
F7B
330
1F
100
AcDbEntity
  8
0
 62
     3
100
AcDbText
 10
1513.306147215906
 20
46.97003658655535
 30
0.0
 40
2.0
  1
CONPONENTS
 41
0.5
  7
高2
100
AcDbText
  0
TEXT
  5
F7C
330
1F
100
AcDbEntity
  8
0
 62
     3
100
AcDbText
 10
1526.013262687073
 20
35.35049636376829
 30
0.0
 40
4.5
  1
L125B-E39-HM110-50K
 41
0.55
  7
高4.5
100
AcDbText
  0
TEXT
  5
F7D
330
1F
100
AcDbEntity
  8
0
 62
     3
100
AcDbText
 10
1572.317206593057
 20
11.72822638604293
 30
0.0
 40
6.299999999999998
  1
L125B-E39-HM110-50K
 41
0.45
  7
高6.3
100
AcDbText
1001
ACAD
1000
ACAD_MTEXT_DEFINED_HEIGHT_BEGIN
1070
    46
1040
0.0
1000
ACAD_MTEXT_DEFINED_HEIGHT_END
  0
TEXT
  5
F7E
330
1F
100
AcDbEntity
  8
0
 62
     3
100
AcDbText
 10
1587.43401317215
 20
21.36390439418938
 30
0.0
 40
3.2
  1
2021.10.21
  7
高3.2
100
AcDbText
1001
ACAD
1000
ACAD_MTEXT_DEFINED_HEIGHT_BEGIN
1070
    46
1040
0.0
1000
ACAD_MTEXT_DEFINED_HEIGHT_END
  0
TEXT
  5
F7F
330
1F
100
AcDbEntity
  8
0
 62
     3
100
AcDbText
 10
1557.658101316467
 20
21.36393223852423
 30
0.0
 40
3.2
  1
1/4
  7
高3.2
100
AcDbText
  0
TEXT
  5
F80
330
1F
100
AcDbEntity
  8
0
 62
     3
100
AcDbText
 10
1554.73543029182
 20
11.07989340909228
 30
0.0
 40
3.2
  1
ZK-A4Y
 41
0.8
  7
高3.2
100
AcDbText
  0
TEXT
  5
F81
330
1F
100
AcDbEntity
  8
0
 62
     3
100
AcDbText
 10
1512.45576982182
 20
16.78763565814415
 30
0.0
 40
2.0
  1
NICHIDO IND.CO.LTD
 41
1.3
  7
高2
100
AcDbText
  0
TEXT
  5
F82
330
1F
100
AcDbEntity
  8
0
 62
     3
100
AcDbText
 10
1513.637293086778
 20
42.40354344384127
 30
0.0
 40
3.2
  1
品 名
  7
高3.2
100
AcDbText
1001
ACAD
1000
ACAD_MTEXT_DEFINED_HEIGHT_BEGIN
1070
    46
1040
0.0
1000
ACAD_MTEXT_DEFINED_HEIGHT_END
  0
TEXT
  5
F83
330
1F
100
AcDbEntity
  8
0
 62
     3
100
AcDbText
 10
1513.637293086778
 20
34.76301523595636
 30
0.0
 40
3.2
  1
型 式
  7
高3.2
100
AcDbText
1001
ACAD
1000
ACAD_MTEXT_DEFINED_HEIGHT_BEGIN
1070
    46
1040
3.064735913775952
1000
ACAD_MTEXT_DEFINED_HEIGHT_END
  0
TEXT
  5
F84
330
1F
100
AcDbEntity
  8
0
 62
     3
100
AcDbText
 10
1513.637293086778
 20
27.76301523595634
 30
0.0
 40
3.2
  1
材 質
  7
高3.2
100
AcDbText
1001
ACAD
1000
ACAD_MTEXT_DEFINED_HEIGHT_BEGIN
1070
    46
1040
0.0
1000
ACAD_MTEXT_DEFINED_HEIGHT_END
  0
TEXT
  5
F85
330
1F
100
AcDbEntity
  8
0
 62
     3
100
AcDbText
 10
1513.332258136777
 20
20.73045522820257
 30
0.0
 40
3.2
  1
第 三 角 法
  7
高3.2
100
AcDbText
1001
ACAD
1000
ACAD_MTEXT_DEFINED_HEIGHT_BEGIN
1070
    46
1040
0.0
1000
ACAD_MTEXT_DEFINED_HEIGHT_END
  0
TEXT
  5
F86
330
1F
100
AcDbEntity
  8
0
 62
     3
100
AcDbText
 10
1511.738790744306
 20
11.40354344384127
 30
0.0
 40
3.2
  1
日動工業株式会社
 41
1.199999999999999
  7
高3.2
100
AcDbText
1001
ACAD
1000
ACAD_MTEXT_DEFINED_HEIGHT_BEGIN
1070
    46
1040
0.0
1000
ACAD_MTEXT_DEFINED_HEIGHT_END
  0
TEXT
  5
F87
330
1F
100
AcDbEntity
  8
0
 62
     3
100
AcDbText
 10
1545.374414943785
 20
27.64759376912389
 30
0.0
 40
3.2
  1
備考
  7
高3.2
100
AcDbText
1001
ACAD
1000
ACAD_MTEXT_DEFINED_HEIGHT_BEGIN
1070
    46
1040
0.0
1000
ACAD_MTEXT_DEFINED_HEIGHT_END
  0
TEXT
  5
F88
330
1F
100
AcDbEntity
  8
0
 62
     3
100
AcDbText
 10
1555.02347239082
 20
16.40924526152662
 30
0.0
 40
2.5
  1
出図コード
  7
高2.5
100
AcDbText
1001
ACAD
1000
ACAD_MTEXT_DEFINED_HEIGHT_BEGIN
1070
    46
1040
0.0
1000
ACAD_MTEXT_DEFINED_HEIGHT_END
  0
TEXT
  5
F89
330
1F
100
AcDbEntity
  8
0
 62
     3
100
AcDbText
 10
1545.215648825697
 20
20.71625014636925
 30
0.0
 40
3.2
  1
尺度
  7
高3.2
100
AcDbText
1001
ACAD
1000
ACAD_MTEXT_DEFINED_HEIGHT_BEGIN
1070
    46
1040
0.0
1000
ACAD_MTEXT_DEFINED_HEIGHT_END
  0
TEXT
  5
F8A
330
1F
100
AcDbEntity
  8
0
 62
     3
100
AcDbText
 10
1572.361910307476
 20
21.84772859448674
 30
0.0
 40
3.2
  1
作成日
  7
高3.2
100
AcDbText
1001
ACAD
1000
ACAD_MTEXT_DEFINED_HEIGHT_BEGIN
1070
    46
1040
0.0
1000
ACAD_MTEXT_DEFINED_HEIGHT_END
  0
TEXT
  5
F8B
330
1F
100
AcDbEntity
  8
0
 62
     3
100
AcDbText
 10
1572.256384314339
 20
42.40354344384127
 30
0.0
 40
3.2
  1
承 認
  7
高3.2
100
AcDbText
1001
ACAD
1000
ACAD_MTEXT_DEFINED_HEIGHT_BEGIN
1070
    46
1040
0.0
1000
ACAD_MTEXT_DEFINED_HEIGHT_END
  0
TEXT
  5
F8C
330
1F
100
AcDbEntity
  8
0
 62
     3
100
AcDbText
 10
1585.25638431434
 20
42.40354344384127
 30
0.0
 40
3.2
  1
検 図
  7
高3.2
100
AcDbText
1001
ACAD
1000
ACAD_MTEXT_DEFINED_HEIGHT_BEGIN
1070
    46
1040
0.0
1000
ACAD_MTEXT_DEFINED_HEIGHT_END
  0
TEXT
  5
F8D
330
1F
100
AcDbEntity
  8
0
 62
     3
100
AcDbText
 10
1598.25638431434
 20
42.40354344384127
 30
0.0
 40
3.2
  1
設 計
  7
高3.2
100
AcDbText
1001
ACAD
1000
ACAD_MTEXT_DEFINED_HEIGHT_BEGIN
1070
    46
1040
0.0
1000
ACAD_MTEXT_DEFINED_HEIGHT_END
  0
TEXT
  5
F8E
330
1F
100
AcDbEntity
  8
0
 62
     3
100
AcDbText
 10
1611.55702083434
 20
42.40354344384127
 30
0.0
 40
3.2
  1
製 図
  7
高3.2
100
AcDbText
1001
ACAD
1000
ACAD_MTEXT_DEFINED_HEIGHT_BEGIN
1070
    46
1040
0.0
1000
ACAD_MTEXT_DEFINED_HEIGHT_END
  0
TEXT
  5
F8F
330
1F
100
AcDbEntity
  8
0
 62
     3
100
AcDbText
 10
1610.37050342182
 20
277.7630152359563
 30
0.0
 40
3.2
  1
担　当
  7
高3.2
100
AcDbText
  0
TEXT
  5
F90
330
1F
100
AcDbEntity
  8
0
 62
     3
100
AcDbText
 10
1566.37050342182
 20
277.7630152359563
 30
0.0
 40
3.2
  1
変更・追記内容
  7
高3.2
100
AcDbText
  0
TEXT
  5
F91
330
1F
100
AcDbEntity
  8
0
 62
     3
100
AcDbText
 10
1541.484018422159
 20
273.0924767260481
 30
0.0
 40
2.0
  1
1
  7
高2
100
AcDbText
  0
TEXT
  5
F92
330
1F
100
AcDbEntity
  8
0
 62
     3
100
AcDbText
 10
1541.175506945402
 20
267.9226600137752
 30
0.0
 40
2.0
  1
2
  7
高2
100
AcDbText
  0
TEXT
  5
F93
330
1F
100
AcDbEntity
  8
0
 62
     3
100
AcDbText
 10
1548.37050342182
 20
277.7630152359563
 30
0.0
 40
3.2
  1
日　付
  7
高3.2
100
AcDbText
  0
TEXT
  5
F94
330
1F
100
AcDbEntity
  8
0
 62
     3
100
AcDbText
 10
1548.37050342182
 20
282.7630152359564
 30
0.0
 40
3.2
  1
図　　　　面　　　　略　　　　歴
  7
高3.2
100
AcDbText
  0
TEXT
  5
F95
330
1F
100
AcDbEntity
  8
0
 62
     3
100
AcDbText
 10
1538.37050342182
 20
277.7630152359563
 30
0.0
 40
3.2
  1
記号
  7
高3.2
100
AcDbText
  0
LINE
  5
F96
330
1F
100
AcDbEntity
  8
0
100
AcDbLine
 10
1541.87050342182
 20
271.0539112359565
 30
0.0
 11
1539.97050342182
 21
267.7630152359563
 31
0.0
  0
LINE
  5
F97
330
1F
100
AcDbEntity
  8
0
100
AcDbLine
 10
1541.87050342182
 20
271.0539112359565
 30
0.0
 11
1543.77050342182
 21
267.7630152359563
 31
0.0
  0
LINE
  5
F98
330
1F
100
AcDbEntity
  8
0
100
AcDbLine
 10
1539.97050342182
 20
267.7630152359563
 30
0.0
 11
1543.77050342182
 21
267.7630152359563
 31
0.0
  0
LINE
  5
F99
330
1F
100
AcDbEntity
  8
0
100
AcDbLine
 10
1541.87050342182
 20
276.0539122359564
 30
0.0
 11
1539.97050342182
 21
272.7630152359564
 31
0.0
  0
LINE
  5
F9A
330
1F
100
AcDbEntity
  8
0
100
AcDbLine
 10
1541.87050342182
 20
276.0539122359564
 30
0.0
 11
1543.77050342182
 21
272.7630152359564
 31
0.0
  0
LINE
  5
F9B
330
1F
100
AcDbEntity
  8
0
100
AcDbLine
 10
1539.97050342182
 20
272.7630152359564
 30
0.0
 11
1543.77050342182
 21
272.7630152359564
 31
0.0
  0
LINE
  5
F9C
330
1F
100
AcDbEntity
  8
0
 62
     3
100
AcDbLine
 10
1536.87050342182
 20
282.2630152359563
 30
0.0
 11
1622.87050342182
 21
282.2630152359563
 31
0.0
  0
LINE
  5
F9D
330
1F
100
AcDbEntity
  8
0
 62
     3
100
AcDbLine
 10
1536.87050342182
 20
277.2630152359564
 30
0.0
 11
1622.87050342182
 21
277.2630152359564
 31
0.0
  0
LINE
  5
F9E
330
1F
100
AcDbEntity
  8
0
 62
     7
100
AcDbLine
 10
1536.87050342182
 20
272.2630152359563
 30
0.0
 11
1622.87050342182
 21
272.2630152359563
 31
0.0
  0
LINE
  5
F9F
330
1F
100
AcDbEntity
  8
0
 62
     3
100
AcDbLine
 10
1536.87050342182
 20
267.2630152359563
 30
0.0
 11
1622.87050342182
 21
267.2630152359563
 31
0.0
  0
LINE
  5
FA0
330
1F
100
AcDbEntity
  8
0
 62
     7
100
AcDbLine
 10
1608.87050342182
 20
267.2630152359563
 30
0.0
 11
1608.87050342182
 21
282.2630152359563
 31
0.0
  0
LINE
  5
FA1
330
1F
100
AcDbEntity
  8
0
 62
     7
100
AcDbLine
 10
1564.87050342182
 20
267.2630152359563
 30
0.0
 11
1564.87050342182
 21
282.2630152359563
 31
0.0
  0
LINE
  5
FA2
330
1F
100
AcDbEntity
  8
0
 62
     7
100
AcDbLine
 10
1546.87050342182
 20
267.2630152359563
 30
0.0
 11
1546.87050342182
 21
282.2630152359563
 31
0.0
  0
LINE
  5
FA3
330
1F
100
AcDbEntity
  8
0
 62
     3
100
AcDbLine
 10
1536.87050342182
 20
267.2630152359563
 30
0.0
 11
1536.87050342182
 21
287.2630152359564
 31
0.0
  0
LINE
  5
FA4
330
1F
100
AcDbEntity
  8
0
 62
     3
100
AcDbLine
 10
1479.954855441819
 20
289.0504593359564
 30
0.0
 11
1480.39060335182
 21
288.8229911959562
 31
0.0
  0
LINE
  5
FA5
330
1F
100
AcDbEntity
  8
0
 62
     3
100
AcDbLine
 10
1479.954855441819
 20
285.3198288559564
 30
0.0
 11
1480.39060335182
 21
285.5472969959564
 31
0.0
  0
LINE
  5
FA6
330
1F
100
AcDbEntity
  8
0
 62
     3
100
AcDbLine
 10
1480.39060335182
 20
288.8229911959562
 30
0.0
 11
1480.39060335182
 21
285.5472969959564
 31
0.0
  0
LINE
  5
FA7
330
1F
100
AcDbEntity
  8
0
 62
     3
100
AcDbLine
 10
1481.49412077182
 20
285.3198288559564
 30
0.0
 11
1481.05837286182
 21
285.5472969959564
 31
0.0
  0
LINE
  5
FA8
330
1F
100
AcDbEntity
  8
0
 62
     3
100
AcDbLine
 10
1481.05837286182
 20
287.5441558059564
 30
0.0
 11
1481.05837286182
 21
285.5472969959564
 31
0.0
  0
LINE
  5
FA9
330
1F
100
AcDbEntity
  8
0
 62
     3
100
AcDbLine
 10
1484.03598355182
 20
289.0504593359564
 30
0.0
 11
1483.60023564182
 21
288.8229911959562
 31
0.0
  0
LINE
  5
FAA
330
1F
100
AcDbEntity
  8
0
 62
     3
100
AcDbLine
 10
1482.49671822182
 20
289.0504593359564
 30
0.0
 11
1482.932466131819
 21
288.8229911959562
 31
0.0
  0
LINE
  5
FAB
330
1F
100
AcDbEntity
  8
0
 62
     3
100
AcDbLine
 10
1482.932466131819
 20
288.8229911959562
 30
0.0
 11
1482.932466131819
 21
287.3806541359564
 31
0.0
  0
LINE
  5
FAC
330
1F
100
AcDbEntity
  8
0
 62
     3
100
AcDbLine
 10
1483.60023564182
 20
288.8229911959562
 30
0.0
 11
1483.60023564182
 21
285.1082677159563
 31
0.0
  0
LINE
  5
FAD
330
1F
100
AcDbEntity
  8
0
 62
     3
100
AcDbLine
 10
1484.25128075182
 20
289.0504567059563
 30
0.0
 11
1484.68702709182
 21
288.8229855659563
 31
0.0
  0
LINE
  5
FAE
330
1F
100
AcDbEntity
  8
0
 62
     3
100
AcDbLine
 10
1484.25120278182
 20
285.3198788359564
 30
0.0
 11
1484.686958631821
 21
285.5473317559563
 31
0.0
  0
LINE
  5
FAF
330
1F
100
AcDbEntity
  8
0
 62
     3
100
AcDbLine
 10
1484.68702709182
 20
288.8229855659563
 30
0.0
 11
1484.68702709182
 21
285.5473317559563
 31
0.0
  0
LINE
  5
FB0
330
1F
100
AcDbEntity
  8
0
 62
     3
100
AcDbLine
 10
1486.180817151821
 20
289.0504330359562
 30
0.0
 11
1485.745066061818
 21
288.8229710059564
 31
0.0
  0
LINE
  5
FB1
330
1F
100
AcDbEntity
  8
0
 62
     3
100
AcDbLine
 10
1485.745066061818
 20
288.8229710059564
 30
0.0
 11
1485.745066061818
 21
285.5473171859564
 31
0.0
  0
LINE
  5
FB2
330
1F
100
AcDbEntity
  8
0
 62
     3
100
AcDbLine
 10
1486.180817151821
 20
285.3198551559564
 30
0.0
 11
1485.745066061818
 21
285.5473171859564
 31
0.0
  0
LINE
  5
FB3
330
1F
100
AcDbEntity
  8
0
 62
     3
100
AcDbLine
 10
1489.87107059182
 20
289.0503920359563
 30
0.0
 11
1490.30681771182
 21
288.8229223959562
 31
0.0
  0
LINE
  5
FB4
330
1F
100
AcDbEntity
  8
0
 62
     3
100
AcDbLine
 10
1490.30681771182
 20
288.8229223959562
 30
0.0
 11
1490.30676054182
 21
285.5472685859563
 31
0.0
  0
LINE
  5
FB5
330
1F
100
AcDbEntity
  8
0
 62
     3
100
AcDbLine
 10
1489.87100548182
 20
285.3198141559563
 30
0.0
 11
1490.30676054182
 21
285.5472685859563
 31
0.0
  0
LINE
  5
FB6
330
1F
100
AcDbEntity
  8
0
 62
     3
100
AcDbLine
 10
1491.82333155182
 20
289.0503920359563
 30
0.0
 11
1491.38758443182
 21
288.8229223959562
 31
0.0
  0
LINE
  5
FB7
330
1F
100
AcDbEntity
  8
0
 62
     3
100
AcDbLine
 10
1491.82339666182
 20
285.3198141559563
 30
0.0
 11
1491.38764160182
 21
285.5472685859563
 31
0.0
  0
LINE
  5
FB8
330
1F
100
AcDbEntity
  8
0
 62
     3
100
AcDbLine
 10
1492.02705941182
 20
289.0503920359563
 30
0.0
 11
1492.46280654182
 21
288.8229223959562
 31
0.0
  0
LINE
  5
FB9
330
1F
100
AcDbEntity
  8
0
 62
     3
100
AcDbLine
 10
1492.02699430182
 20
285.3198141559563
 30
0.0
 11
1492.46274936182
 21
285.5472685859563
 31
0.0
  0
LINE
  5
FBA
330
1F
100
AcDbEntity
  8
0
 62
     3
100
AcDbLine
 10
1493.97932038182
 20
289.0503920359563
 30
0.0
 11
1493.543573261821
 21
288.8229223959562
 31
0.0
  0
LINE
  5
FBB
330
1F
100
AcDbEntity
  8
0
 62
     3
100
AcDbLine
 10
1493.543573261821
 20
288.8229223959562
 30
0.0
 11
1493.54363043182
 21
285.5472685859563
 31
0.0
  0
LINE
  5
FBC
330
1F
100
AcDbEntity
  8
0
 62
     3
100
AcDbLine
 10
1493.97938549182
 20
285.3198141559563
 30
0.0
 11
1493.54363043182
 21
285.5472685859563
 31
0.0
  0
LINE
  5
FBD
330
1F
100
AcDbEntity
  8
0
 62
     3
100
AcDbLine
 10
1492.46278163182
 20
287.3957892759563
 30
0.0
 11
1491.38760934182
 21
287.3957892759563
 31
0.0
  0
LINE
  5
FBE
330
1F
100
AcDbEntity
  8
0
 62
     3
100
AcDbLine
 10
1492.46277427182
 20
286.9744989159563
 30
0.0
 11
1491.38761669182
 21
286.9744989159563
 31
0.0
  0
LINE
  5
FBF
330
1F
100
AcDbEntity
  8
0
 62
     3
100
AcDbLine
 10
1492.46280654182
 20
288.8229223959562
 30
0.0
 11
1492.46278163182
 21
287.3957892759563
 31
0.0
  0
LINE
  5
FC0
330
1F
100
AcDbEntity
  8
0
 62
     3
100
AcDbLine
 10
1492.46277427182
 20
286.9744989159563
 30
0.0
 11
1492.46274936182
 21
285.5472685859563
 31
0.0
  0
LINE
  5
FC1
330
1F
100
AcDbEntity
  8
0
 62
     3
100
AcDbLine
 10
1491.38758443182
 20
288.8229223959562
 30
0.0
 11
1491.38760934182
 21
287.3957892759563
 31
0.0
  0
LINE
  5
FC2
330
1F
100
AcDbEntity
  8
0
 62
     3
100
AcDbLine
 10
1491.38761669182
 20
286.9744989159563
 30
0.0
 11
1491.38764160182
 21
285.5472685859563
 31
0.0
  0
LINE
  5
FC3
330
1F
100
AcDbEntity
  8
0
 62
     3
100
AcDbLine
 10
1494.186279501819
 20
289.0503920359563
 30
0.0
 11
1494.62202662182
 21
288.8229223959562
 31
0.0
  0
LINE
  5
FC4
330
1F
100
AcDbEntity
  8
0
 62
     3
100
AcDbLine
 10
1494.62202662182
 20
288.8229223959562
 30
0.0
 11
1494.62196945182
 21
285.5472685859563
 31
0.0
  0
LINE
  5
FC5
330
1F
100
AcDbEntity
  8
0
 62
     3
100
AcDbLine
 10
1494.18621439182
 20
285.3198141559563
 30
0.0
 11
1494.62196945182
 21
285.5472685859563
 31
0.0
  0
LINE
  5
FC6
330
1F
100
AcDbEntity
  8
0
 62
     3
100
AcDbLine
 10
1496.11578977182
 20
289.0503920359563
 30
0.0
 11
1495.68004265182
 21
288.8229223959562
 31
0.0
  0
LINE
  5
FC7
330
1F
100
AcDbEntity
  8
0
 62
     3
100
AcDbLine
 10
1495.68004265182
 20
288.8229223959562
 30
0.0
 11
1495.68009982182
 21
285.5472685859563
 31
0.0
  0
LINE
  5
FC8
330
1F
100
AcDbEntity
  8
0
 62
     3
100
AcDbLine
 10
1496.115854881821
 20
285.3198141559563
 30
0.0
 11
1495.68009982182
 21
285.5472685859563
 31
0.0
  0
LINE
  5
FC9
330
1F
100
AcDbEntity
  8
0
 62
     3
100
AcDbLine
 10
1496.33014934182
 20
289.0503920359563
 30
0.0
 11
1496.76589646182
 21
288.8229223959562
 31
0.0
  0
LINE
  5
FCA
330
1F
100
AcDbEntity
  8
0
 62
     3
100
AcDbLine
 10
1496.76589646182
 20
288.8229223959562
 30
0.0
 11
1496.76583929182
 21
285.5472685859563
 31
0.0
  0
LINE
  5
FCB
330
1F
100
AcDbEntity
  8
0
 62
     3
100
AcDbLine
 10
1496.33008423182
 20
285.3198141559563
 30
0.0
 11
1496.76583929182
 21
285.5472685859563
 31
0.0
  0
ARC
  5
FCC
330
1F
100
AcDbEntity
  8
0
 62
     3
100
AcDbCircle
 10
1488.479159321821
 20
287.1945338559564
 30
0.0
 40
2.086285909999999
100
AcDbArc
 50
97.70152350999721
 51
270.0
  0
ARC
  5
FCD
330
1F
100
AcDbEntity
  8
0
 62
     3
100
AcDbCircle
 10
1501.35976016182
 20
287.1735772259564
 30
0.0
 40
2.108943379999999
100
AcDbArc
 50
0.3142502700008875
 51
69.00558245000308
  0
ARC
  5
FCE
330
1F
100
AcDbEntity
  8
0
 62
     3
100
AcDbCircle
 10
1501.82043548182
 20
287.1735772259564
 30
0.0
 40
2.108943379999999
100
AcDbArc
 50
110.9944175499969
 51
148.1166110199972
  0
ARC
  5
FCF
330
1F
100
AcDbEntity
  8
0
 62
     3
100
AcDbCircle
 10
1501.35976016182
 20
287.1967109659564
 30
0.0
 40
2.108943379999999
100
AcDbArc
 50
290.9944175499969
 51
359.6857497299991
  0
ARC
  5
FD0
330
1F
100
AcDbEntity
  8
0
 62
     3
100
AcDbCircle
 10
1501.82043548182
 20
287.1967109659564
 30
0.0
 40
2.108943379999999
100
AcDbArc
 50
211.8833889800028
 51
249.0055824500031
  0
ARC
  5
FD1
330
1F
100
AcDbEntity
  8
0
 62
     3
100
AcDbCircle
 10
1501.59009782182
 20
288.0479494859564
 30
0.0
 40
1.214070989999997
100
AcDbArc
 50
64.36517189999962
 51
115.6348281000003
  0
ARC
  5
FD2
330
1F
100
AcDbEntity
  8
0
 62
     3
100
AcDbCircle
 10
1501.59009782182
 20
286.3223387059564
 30
0.0
 40
1.214070989999997
100
AcDbArc
 50
244.3651718999997
 51
295.6348281000003
  0
ARC
  5
FD3
330
1F
100
AcDbEntity
  8
0
 62
     3
100
AcDbCircle
 10
1501.59009782182
 20
288.0710111659563
 30
0.0
 40
0.59585563
100
AcDbArc
 50
19.4866055400091
 51
160.5133944599909
  0
ARC
  5
FD4
330
1F
100
AcDbEntity
  8
0
 62
     3
100
AcDbCircle
 10
1501.59009782182
 20
286.3223387059564
 30
0.0
 40
1.214070989999997
100
AcDbArc
 50
244.3651718999997
 51
295.6348281000003
  0
ARC
  5
FD5
330
1F
100
AcDbEntity
  8
0
 62
     3
100
AcDbCircle
 10
1501.59009782182
 20
286.2992770259564
 30
0.0
 40
0.59585563
100
AcDbArc
 50
199.486605540009
 51
340.513394459991
  0
ARC
  5
FD6
330
1F
100
AcDbEntity
  8
0
 62
     3
100
AcDbCircle
 10
1496.84762532182
 20
264.9570842559564
 30
0.0
 40
26.04
100
AcDbArc
 50
69.50571480002236
 51
81.68998807001051
  0
ARC
  5
FD7
330
1F
100
AcDbEntity
  8
0
 62
     3
100
AcDbCircle
 10
1496.84762532182
 20
309.4132039359564
 30
0.0
 40
26.04
100
AcDbArc
 50
278.3100119299894
 51
290.4942851999777
  0
ARC
  5
FD8
330
1F
100
AcDbEntity
  8
0
 62
     3
100
AcDbCircle
 10
1505.15582945182
 20
287.1851440959564
 30
0.0
 40
2.31
100
AcDbArc
 50
290.4942851999777
 51
69.50571480002236
  0
ARC
  5
FD9
330
1F
100
AcDbEntity
  8
0
 62
     3
100
AcDbCircle
 10
1477.855829451821
 20
287.1851440959564
 30
0.0
 40
2.31
100
AcDbArc
 50
110.4942851999776
 51
249.5057147999945
  0
ARC
  5
FDA
330
1F
100
AcDbEntity
  8
0
 62
     3
100
AcDbCircle
 10
1486.16403357182
 20
264.9570842559564
 30
0.0
 40
26.04
100
AcDbArc
 50
98.31001192998948
 51
110.4942851999776
  0
ARC
  5
FDB
330
1F
100
AcDbEntity
  8
0
 62
     3
100
AcDbCircle
 10
1486.16403357182
 20
309.4132039359564
 30
0.0
 40
26.04
100
AcDbArc
 50
249.5057147999945
 51
261.6899880699842
  0
ARC
  5
FDC
330
1F
100
AcDbEntity
  8
0
 62
     3
100
AcDbCircle
 10
1491.50582945182
 20
228.3851440959564
 30
0.0
 40
62.99999987
100
AcDbArc
 50
81.68998807001051
 51
98.31001192998948
  0
ARC
  5
FDD
330
1F
100
AcDbEntity
  8
0
 62
     3
100
AcDbCircle
 10
1491.50582945182
 20
345.9851440959563
 30
0.0
 40
62.99999987
100
AcDbArc
 50
261.6899880699842
 51
278.3100119299894
  0
ARC
  5
FDE
330
1F
100
AcDbEntity
  8
0
 62
     3
100
AcDbCircle
 10
1491.50582945182
 20
228.3851440959564
 30
0.0
 40
62.36999987
100
AcDbArc
 50
81.68998807001051
 51
98.31001192998948
  0
ARC
  5
FDF
330
1F
100
AcDbEntity
  8
0
 62
     3
100
AcDbCircle
 10
1491.50582945182
 20
345.9851440959563
 30
0.0
 40
62.36999987
100
AcDbArc
 50
261.6899880699842
 51
278.3100119299894
  0
ARC
  5
FE0
330
1F
100
AcDbEntity
  8
0
 62
     3
100
AcDbCircle
 10
1496.84762532182
 20
309.4132039359564
 30
0.0
 40
25.41
100
AcDbArc
 50
278.3100119299894
 51
290.4942851999777
  0
ARC
  5
FE1
330
1F
100
AcDbEntity
  8
0
 62
     3
100
AcDbCircle
 10
1496.84762532182
 20
264.9570842559564
 30
0.0
 40
25.41
100
AcDbArc
 50
69.50571480002236
 51
81.68998807001051
  0
ARC
  5
FE2
330
1F
100
AcDbEntity
  8
0
 62
     3
100
AcDbCircle
 10
1505.15582945182
 20
287.1851440959564
 30
0.0
 40
1.679999999999999
100
AcDbArc
 50
290.4942851999777
 51
69.50571480002236
  0
ARC
  5
FE3
330
1F
100
AcDbEntity
  8
0
 62
     3
100
AcDbCircle
 10
1477.855829451821
 20
287.1851440959564
 30
0.0
 40
1.679999999999999
100
AcDbArc
 50
110.4942851999776
 51
249.5057147999945
  0
ARC
  5
FE4
330
1F
100
AcDbEntity
  8
0
 62
     3
100
AcDbCircle
 10
1486.16403357182
 20
264.9570842559564
 30
0.0
 40
25.41
100
AcDbArc
 50
98.31001192998948
 51
110.4942851999776
  0
ARC
  5
FE5
330
1F
100
AcDbEntity
  8
0
 62
     3
100
AcDbCircle
 10
1486.16403357182
 20
309.4132039359564
 30
0.0
 40
25.41
100
AcDbArc
 50
249.5057147999945
 51
261.6899880699842
  0
LINE
  5
FE6
330
1F
100
AcDbEntity
  8
0
 62
     3
100
AcDbLine
 10
1496.115790551821
 20
285.1082677159563
 30
0.0
 11
1494.18627872182
 21
285.1082677159563
 31
0.0
  0
LINE
  5
FE7
330
1F
100
AcDbEntity
  8
0
 62
     3
100
AcDbLine
 10
1496.115790551821
 20
285.3198288559564
 30
0.0
 11
1496.115790551821
 21
285.1082677159563
 31
0.0
  0
LINE
  5
FE8
330
1F
100
AcDbEntity
  8
0
 62
     3
100
AcDbLine
 10
1493.97932116182
 20
289.2619217559564
 30
0.0
 11
1492.02705863182
 21
289.2619217559564
 31
0.0
  0
LINE
  5
FE9
330
1F
100
AcDbEntity
  8
0
 62
     3
100
AcDbLine
 10
1493.97932116182
 20
289.2619217559564
 30
0.0
 11
1493.97932116182
 21
289.0504593359564
 31
0.0
  0
LINE
  5
FEA
330
1F
100
AcDbEntity
  8
0
 62
     3
100
AcDbLine
 10
1493.97932116182
 20
285.3198288559564
 30
0.0
 11
1493.97932116182
 21
285.1081690059564
 31
0.0
  0
LINE
  5
FEB
330
1F
100
AcDbEntity
  8
0
 62
     3
100
AcDbLine
 10
1493.97932116182
 20
285.1081690059564
 30
0.0
 11
1492.02705863182
 21
285.1081690059564
 31
0.0
  0
LINE
  5
FEC
330
1F
100
AcDbEntity
  8
0
 62
     3
100
AcDbLine
 10
1496.115790551821
 20
289.2620204759564
 30
0.0
 11
1496.115790551821
 21
289.0504593359564
 31
0.0
  0
LINE
  5
FED
330
1F
100
AcDbEntity
  8
0
 62
     3
100
AcDbLine
 10
1496.115790551821
 20
289.2620204759564
 30
0.0
 11
1494.18627872182
 21
289.2620204759564
 31
0.0
  0
LINE
  5
FEE
330
1F
100
AcDbEntity
  8
0
 62
     3
100
AcDbLine
 10
1494.18627872182
 20
289.2620204759564
 30
0.0
 11
1494.18627872182
 21
289.0504593359564
 31
0.0
  0
LINE
  5
FEF
330
1F
100
AcDbEntity
  8
0
 62
     3
100
AcDbLine
 10
1496.33014855182
 20
285.3198288559564
 30
0.0
 11
1496.33014855182
 21
285.1082677159563
 31
0.0
  0
LINE
  5
FF0
330
1F
100
AcDbEntity
  8
0
 62
     3
100
AcDbLine
 10
1498.31444911182
 20
285.1082677159563
 30
0.0
 11
1496.33014855182
 21
285.1082677159563
 31
0.0
  0
LINE
  5
FF1
330
1F
100
AcDbEntity
  8
0
 62
     3
100
AcDbLine
 10
1497.82391248182
 20
288.5942509559564
 30
0.0
 11
1497.82391248182
 21
285.7760372359564
 31
0.0
  0
LINE
  5
FF2
330
1F
100
AcDbEntity
  8
0
 62
     3
100
AcDbLine
 10
1497.82391248182
 20
285.7760372359564
 30
0.0
 11
1498.01396145182
 21
285.7760372359564
 31
0.0
  0
ARC
  5
FF3
330
1F
100
AcDbEntity
  8
0
 62
     3
100
AcDbCircle
 10
1497.04217571182
 20
287.1851440959564
 30
0.0
 40
1.71170957
100
AcDbArc
 50
304.5919552700178
 51
55.40804472998225
  0
LINE
  5
FF4
330
1F
100
AcDbEntity
  8
0
 62
     3
100
AcDbLine
 10
1498.31444911182
 20
289.2620204759564
 30
0.0
 11
1496.33014855182
 21
289.2620204759564
 31
0.0
  0
LINE
  5
FF5
330
1F
100
AcDbEntity
  8
0
 62
     3
100
AcDbLine
 10
1496.33014855182
 20
289.2620204759564
 30
0.0
 11
1496.33014855182
 21
289.0504593359564
 31
0.0
  0
LINE
  5
FF6
330
1F
100
AcDbEntity
  8
0
 62
     3
100
AcDbLine
 10
1494.18627872182
 20
285.3198288559564
 30
0.0
 11
1494.18627872182
 21
285.1082677159563
 31
0.0
  0
LINE
  5
FF7
330
1F
100
AcDbEntity
  8
0
 62
     3
100
AcDbLine
 10
1497.82391248182
 20
288.5942509559564
 30
0.0
 11
1498.01396145182
 21
288.5942509559564
 31
0.0
  0
LINE
  5
FF8
330
1F
100
AcDbEntity
  8
0
 62
     3
100
AcDbLine
 10
1486.180752821821
 20
285.3198288559564
 30
0.0
 11
1486.18074913182
 21
285.1082479459563
 31
0.0
  0
LINE
  5
FF9
330
1F
100
AcDbEntity
  8
0
 62
     3
100
AcDbLine
 10
1484.25123729182
 20
285.1082874859564
 30
0.0
 11
1486.18074913182
 21
285.1082538159563
 31
0.0
  0
LINE
  5
FFA
330
1F
100
AcDbEntity
  8
0
 62
     3
100
AcDbLine
 10
1479.954855441819
 20
285.1082677159563
 30
0.0
 11
1481.49412077182
 21
285.1082677159563
 31
0.0
  0
ARC
  5
FFB
330
1F
100
AcDbEntity
  8
0
 62
     3
100
AcDbCircle
 10
1474.97291276182
 20
287.2340507159563
 30
0.0
 40
14.71356563
100
AcDbArc
 50
353.8660061900026
 51
357.6940342599988
  0
LINE
  5
FFC
330
1F
100
AcDbEntity
  8
0
 62
     3
100
AcDbLine
 10
1488.68949262182
 20
286.6456830659564
 30
0.0
 11
1489.67456351182
 21
286.6420381859564
 31
0.0
  0
LINE
  5
FFE
330
1F
100
AcDbEntity
  8
0
 62
     3
100
AcDbLine
 10
1488.69347104182
 20
287.7208978059564
 30
0.0
 11
1489.67854192182
 21
287.7172529359564
 31
0.0
  0
ARC
  5
FFF
330
1F
100
AcDbEntity
  8
0
 62
     3
100
AcDbCircle
 10
1474.97291276182
 20
287.2340507159563
 30
0.0
 40
14.71356563
100
AcDbArc
 50
1.88196573999825
 51
5.709993810000447
  0
LINE
  5
1000
330
1F
100
AcDbEntity
  8
0
 62
     3
100
AcDbLine
 10
1486.180821621819
 20
289.2620007059564
 30
0.0
 11
1486.18081793182
 21
289.0504593359564
 31
0.0
  0
LINE
  5
1001
330
1F
100
AcDbEntity
  8
0
 62
     3
100
AcDbLine
 10
1484.25130979182
 20
289.2620402459564
 30
0.0
 11
1486.180821621819
 21
289.2620065659563
 31
0.0
  0
LINE
  5
1002
330
1F
100
AcDbEntity
  8
0
 62
     3
100
AcDbLine
 10
1484.25124098182
 20
285.3198288559564
 30
0.0
 11
1484.25123729182
 21
285.1082874859564
 31
0.0
  0
LINE
  5
1003
330
1F
100
AcDbEntity
  8
0
 62
     3
100
AcDbLine
 10
1484.25130979182
 20
289.2620402459564
 30
0.0
 11
1484.25130610182
 21
289.0504593359564
 31
0.0
  0
LINE
  5
1004
330
1F
100
AcDbEntity
  8
0
 62
     3
100
AcDbLine
 10
1481.49412077182
 20
285.3198288559564
 30
0.0
 11
1481.49412077182
 21
285.1082677159563
 31
0.0
  0
LINE
  5
1005
330
1F
100
AcDbEntity
  8
0
 62
     3
100
AcDbLine
 10
1481.05837286182
 20
287.5441558059564
 30
0.0
 11
1482.580802921821
 21
285.1082677159563
 31
0.0
  0
LINE
  5
1006
330
1F
100
AcDbEntity
  8
0
 62
     3
100
AcDbLine
 10
1482.580802921821
 20
285.1082677159563
 30
0.0
 11
1483.60023564182
 21
285.1082677159563
 31
0.0
  0
LINE
  5
1007
330
1F
100
AcDbEntity
  8
0
 62
     3
100
AcDbLine
 10
1484.03598355182
 20
289.2620204759564
 30
0.0
 11
1484.03598355182
 21
289.0504593359564
 31
0.0
  0
LINE
  5
1008
330
1F
100
AcDbEntity
  8
0
 62
     3
100
AcDbLine
 10
1482.49671822182
 20
289.2620204759564
 30
0.0
 11
1484.03598355182
 21
289.2620204759564
 31
0.0
  0
LINE
  5
1009
330
1F
100
AcDbEntity
  8
0
 62
     3
100
AcDbLine
 10
1482.49671822182
 20
289.2620204759564
 30
0.0
 11
1482.49671822182
 21
289.0504593359564
 31
0.0
  0
LINE
  5
100A
330
1F
100
AcDbEntity
  8
0
 62
     3
100
AcDbLine
 10
1482.932466131819
 20
287.3806541359564
 30
0.0
 11
1481.69781946182
 21
289.2620204759564
 31
0.0
  0
LINE
  5
100B
330
1F
100
AcDbEntity
  8
0
 62
     3
100
AcDbLine
 10
1479.954855441819
 20
289.2620204759564
 30
0.0
 11
1481.69781946182
 21
289.2620204759564
 31
0.0
  0
LINE
  5
100C
330
1F
100
AcDbEntity
  8
0
 62
     3
100
AcDbLine
 10
1489.87106980182
 20
289.2619217559564
 30
0.0
 11
1491.82333234182
 21
289.2619217559564
 31
0.0
  0
LINE
  5
100D
330
1F
100
AcDbEntity
  8
0
 62
     3
100
AcDbLine
 10
1489.87106980182
 20
289.0504593359564
 30
0.0
 11
1489.87106980182
 21
289.2619217559564
 31
0.0
  0
LINE
  5
100E
330
1F
100
AcDbEntity
  8
0
 62
     3
100
AcDbLine
 10
1489.87106980182
 20
285.1081690059564
 30
0.0
 11
1489.87106980182
 21
285.3198288559564
 31
0.0
  0
LINE
  5
100F
330
1F
100
AcDbEntity
  8
0
 62
     3
100
AcDbLine
 10
1489.87106980182
 20
285.1081690059564
 30
0.0
 11
1491.82333234182
 21
285.1081690059564
 31
0.0
  0
LINE
  5
1010
330
1F
100
AcDbEntity
  8
0
 62
     3
100
AcDbLine
 10
1492.02705863182
 20
285.3198288559564
 30
0.0
 11
1492.02705863182
 21
285.1081690059564
 31
0.0
  0
LINE
  5
1011
330
1F
100
AcDbEntity
  8
0
 62
     3
100
AcDbLine
 10
1491.82333234182
 20
285.3198288559564
 30
0.0
 11
1491.82333234182
 21
285.1081690059564
 31
0.0
  0
LINE
  5
1012
330
1F
100
AcDbEntity
  8
0
 62
     3
100
AcDbLine
 10
1491.82333234182
 20
289.0504593359564
 30
0.0
 11
1491.82333234182
 21
289.2619217559564
 31
0.0
  0
LINE
  5
1013
330
1F
100
AcDbEntity
  8
0
 62
     3
100
AcDbLine
 10
1492.02705863182
 20
289.0504593359564
 30
0.0
 11
1492.02705863182
 21
289.2619217559564
 31
0.0
  0
LINE
  5
1014
330
1F
100
AcDbEntity
  8
0
 62
     3
100
AcDbLine
 10
1479.954855441819
 20
285.3198288559564
 30
0.0
 11
1479.954855441819
 21
285.1082677159563
 31
0.0
  0
LINE
  5
1015
330
1F
100
AcDbEntity
  8
0
 62
     3
100
AcDbLine
 10
1479.954855441819
 20
289.2620204759564
 30
0.0
 11
1479.954855441819
 21
289.0504593359564
 31
0.0
  0
ARC
  5
1016
330
1F
100
AcDbEntity
  8
0
 62
     3
100
AcDbCircle
 10
1498.52444911182
 20
287.6208920059562
 30
0.0
 40
1.641128469999999
100
AcDbArc
 50
17.30874897999741
 51
23.76507096000098
  0
ARC
  5
1017
330
1F
100
AcDbEntity
  8
0
 62
     3
100
AcDbCircle
 10
1497.12617571182
 20
287.1851440959564
 30
0.0
 40
3.105725599999998
100
AcDbArc
 50
342.6912510200026
 51
17.30856643999471
  0
ARC
  5
1018
330
1F
100
AcDbEntity
  8
0
 62
     3
100
AcDbCircle
 10
1498.52444911182
 20
286.7493961959564
 30
0.0
 40
1.641128469999999
100
AcDbArc
 50
336.2349290399976
 51
342.6912510200026
  0
ARC
  5
1019
330
1F
100
AcDbEntity
  8
0
 62
     3
100
AcDbCircle
 10
1498.31444911182
 20
287.6208920059562
 30
0.0
 40
1.641128469999999
100
AcDbArc
 50
17.30874897999741
 51
90.0
  0
ARC
  5
101A
330
1F
100
AcDbEntity
  8
0
 62
     3
100
AcDbCircle
 10
1496.91617571182
 20
287.1851440959564
 30
0.0
 40
3.105725599999998
100
AcDbArc
 50
342.6912510200026
 51
17.30856643999471
  0
ARC
  5
101B
330
1F
100
AcDbEntity
  8
0
 62
     3
100
AcDbCircle
 10
1498.31444911182
 20
286.7493961959564
 30
0.0
 40
1.641128469999999
100
AcDbArc
 50
270.0
 51
342.6912510200026
  0
ARC
  5
101C
330
1F
100
AcDbEntity
  8
0
 62
     3
100
AcDbCircle
 10
1488.19050874182
 20
287.1851440959564
 30
0.0
 40
2.076876379999998
100
AcDbArc
 50
46.75287961000853
 51
89.74999828999569
  0
ARC
  5
101D
330
1F
100
AcDbEntity
  8
0
 62
     3
100
AcDbCircle
 10
1488.19050874182
 20
287.1851440959564
 30
0.0
 40
2.076876379999998
100
AcDbArc
 50
273.976333149984
 51
312.8231203899985
  0
ARC
  5
101E
330
1F
100
AcDbEntity
  8
0
 62
     3
100
AcDbCircle
 10
1499.63231668182
 20
287.1530825659562
 30
0.0
 40
2.755888999999998
100
AcDbArc
 50
0.6665840599981471
 51
23.90392826999301
  0
ARC
  5
101F
330
1F
100
AcDbEntity
  8
0
 62
     3
100
AcDbCircle
 10
1503.54787896182
 20
287.1530825659562
 30
0.0
 40
2.755888999999998
100
AcDbArc
 50
156.096071730007
 51
179.3334159400018
  0
ARC
  5
1020
330
1F
100
AcDbEntity
  8
0
 62
     3
100
AcDbCircle
 10
1499.63231668182
 20
287.2172056259564
 30
0.0
 40
2.755888999999998
100
AcDbArc
 50
336.096071730007
 51
359.3334159400019
  0
ARC
  5
1021
330
1F
100
AcDbEntity
  8
0
 62
     3
100
AcDbCircle
 10
1503.54787896182
 20
287.2172056259564
 30
0.0
 40
2.755888999999998
100
AcDbArc
 50
180.6665840599981
 51
203.903928269993
  0
LINE
  5
1022
330
1F
100
AcDbEntity
  8
0
 62
     3
100
AcDbLine
 10
1508.19816605182
 20
287.2630152359564
 30
0.0
 11
1622.870503421821
 21
287.2630152359564
 31
0.0
  0
LINE
  5
1023
330
1F
100
AcDbEntity
  8
0
 62
     3
100
AcDbLine
 10
1474.78541953182
 20
287.2630152359564
 30
0.0
 11
1442.87050342182
 21
287.2630152359564
 31
0.0
  0
LINE
  5
1025
330
1F
100
AcDbEntity
  8
0
 62
     3
100
AcDbLine
 10
1596.87050342182
 20
50.26301523595634
 30
0.0
 11
1596.87050342182
 21
56.26301523595632
 31
0.0
  0
LINE
  5
1026
330
1F
100
AcDbEntity
  8
0
 62
     3
100
AcDbLine
 10
1570.87050342182
 20
50.26301523595634
 30
0.0
 11
1570.87050342182
 21
56.26301523595632
 31
0.0
  0
TEXT
  5
1027
330
1F
100
AcDbEntity
  8
0
 62
     3
100
AcDbText
 10
1576.689848944807
 20
50.68976423130834
 30
0.0
 40
4.5
  1
コード
  7
高4.5
100
AcDbText
  0
TEXT
  5
1028
330
1F
100
AcDbEntity
  8
0
 62
     3
100
AcDbText
 10
1601.639572406337
 20
50.68976423130838
 30
0.0
 40
4.5
  1
11981
  7
高4.5
100
AcDbText
  0
TEXT
  5
1029
330
1F
100
AcDbEntity
  8
0
 62
     3
100
AcDbText
 10
1526.066872117072
 20
30.89794712752109
 30
0.0
 40
2.5
  1
本体:MDC
  7
高2.5
100
AcDbText
  0
TEXT
  5
102A
330
1F
100
AcDbEntity
  8
0
100
AcDbText
 10
1615.474108336906
 20
32.24756641135309
 30
0.0
 40
3.2
  1
I
  7
高3.2
100
AcDbText
  0
LINE
  5
102B
330
1F
100
AcDbEntity
  8
0
100
AcDbLine
 10
1442.87050342182
 20
14.26301523595629
 30
0.0
 11
1508.877998931104
 21
14.26301523595634
 31
0.0
  0
LINE
  5
102C
330
1F
100
AcDbEntity
  8
0
100
AcDbLine
 10
1442.87050342182
 20
18.26301523595627
 30
0.0
 11
1508.877998931104
 21
18.26301523595631
 31
0.0
  0
TEXT
  5
102D
330
1F
100
AcDbEntity
  8
0
 62
     3
100
AcDbText
 10
1444.37050342182
 20
10.76301523595634
 30
0.0
 40
2.5
  1
No
 41
0.8
  7
高2.5
100
AcDbText
  0
TEXT
  5
102E
330
1F
100
AcDbEntity
  8
0
 62
     3
100
AcDbText
 10
1444.37050342182
 20
14.76301523595629
 30
0.0
 40
2.5
  1
1
 41
0.8
  7
高2.5
100
AcDbText
  0
LINE
  5
102F
330
1F
100
AcDbEntity
  8
0
 62
     7
100
AcDbLine
 10
1442.87050342182
 20
22.26301523595628
 30
0.0
 11
1508.877998931104
 21
22.26301523595632
 31
0.0
  0
TEXT
  5
1030
330
1F
100
AcDbEntity
  8
0
 62
     3
100
AcDbText
 10
1444.37050342182
 20
18.76301523595627
 30
0.0
 40
2.5
  1
2
 41
0.8
  7
高2.5
100
AcDbText
  0
TEXT
  5
1031
330
1F
100
AcDbEntity
  8
0
 62
     3
100
AcDbText
 10
1451.504412887258
 20
10.7630152359563
 30
0.0
 40
2.5
  1
品　名
 41
0.8
  7
高2.5
100
AcDbText
  0
LINE
  5
1032
330
1F
100
AcDbEntity
  8
0
100
AcDbLine
 10
1450.004412887255
 20
38.26301523595629
 30
0.0
 11
1450.004412887259
 21
10.2630152359563
 31
0.0
  0
TEXT
  5
1033
330
1F
100
AcDbEntity
  8
0
 62
     3
100
AcDbText
 10
1451.504412887258
 20
14.76301523595629
 30
0.0
 40
2.5
  1
本体冷却フィン
 41
0.8
  7
高2.5
100
AcDbText
  0
TEXT
  5
1034
330
1F
100
AcDbEntity
  8
0
 62
     3
100
AcDbText
 10
1476.492431648465
 20
10.7630152359563
 30
0.0
 40
2.5
  1
材質
 41
0.8
  7
高2.5
100
AcDbText
  0
LINE
  5
1035
330
1F
100
AcDbEntity
  8
0
100
AcDbLine
 10
1474.992431648465
 20
38.2630152359563
 30
0.0
 11
1474.992431648466
 21
10.2630152359563
 31
0.0
  0
TEXT
  5
1036
330
1F
100
AcDbEntity
  8
0
 62
     3
100
AcDbText
 10
1476.492431648465
 20
14.76301523595632
 30
0.0
 40
2.5
  1
MDC
 41
0.8
  7
高2.5
100
AcDbText
  0
TEXT
  5
1037
330
1F
100
AcDbEntity
  8
0
 62
     3
100
AcDbText
 10
1489.157136912997
 20
10.76301523595634
 30
0.0
 40
2.5
  1
個数
 41
0.8
  7
高2.5
100
AcDbText
  0
LINE
  5
1038
330
1F
100
AcDbEntity
  8
0
100
AcDbLine
 10
1487.657136912998
 20
38.26301523595635
 30
0.0
 11
1487.657136912997
 21
10.26301523595634
 31
0.0
  0
TEXT
  5
1039
330
1F
100
AcDbEntity
  8
0
 62
     3
100
AcDbText
 10
1489.157136912997
 20
14.76301523595633
 30
0.0
 40
2.5
  1
1
 41
0.8
  7
高2.5
100
AcDbText
  0
TEXT
  5
103A
330
1F
100
AcDbEntity
  8
0
 62
     3
100
AcDbText
 10
1496.027661330242
 20
10.76301523595634
 30
0.0
 40
2.5
  1
コード
 41
0.8
  7
高2.5
100
AcDbText
  0
LINE
  5
103B
330
1F
100
AcDbEntity
  8
0
100
AcDbLine
 10
1494.527661330243
 20
38.26301523595635
 30
0.0
 11
1494.527661330243
 21
10.26301523595634
 31
0.0
  0
TEXT
  5
103C
330
1F
100
AcDbEntity
  8
0
 62
     3
100
AcDbText
 10
1496.027661330242
 20
14.76301523595633
 30
0.0
 40
2.5
  1
-
 41
0.8
  7
高2.5
100
AcDbText
  0
LINE
  5
103D
330
1F
100
AcDbEntity
  8
0
 62
     3
100
AcDbLine
 10
1508.877998931106
 20
38.26301523595635
 30
0.0
 11
1508.877998931105
 21
10.26301523595634
 31
0.0
  0
LINE
  5
103E
330
1F
100
AcDbEntity
  8
0
 62
     7
100
AcDbLine
 10
1442.87050342182
 20
26.26301523595627
 30
0.0
 11
1508.877998931104
 21
26.26301523595635
 31
0.0
  0
TEXT
  5
103F
330
1F
100
AcDbEntity
  8
0
 62
     3
100
AcDbText
 10
1444.37050342182
 20
22.76301523595627
 30
0.0
 40
2.5
  1
3
 41
0.8
  7
高2.5
100
AcDbText
  0
TEXT
  5
1040
330
1F
100
AcDbEntity
  8
0
 62
     3
100
AcDbText
 10
1451.504412887256
 20
34.76301523595629
 30
0.0
 40
2.5
  1
口金アダプター
 41
0.8
  7
高2.5
100
AcDbText
  0
TEXT
  5
1041
330
1F
100
AcDbEntity
  8
0
 62
     3
100
AcDbText
 10
1476.492431648465
 20
34.76301523595632
 30
0.0
 40
2.5
  1
PC
 41
0.8
  7
高2.5
100
AcDbText
  0
TEXT
  5
1042
330
1F
100
AcDbEntity
  8
0
 62
     3
100
AcDbText
 10
1489.157136912998
 20
34.76301523595632
 30
0.0
 40
2.5
  1
1
 41
0.8
  7
高2.5
100
AcDbText
  0
TEXT
  5
1043
330
1F
100
AcDbEntity
  8
0
 62
     3
100
AcDbText
 10
1496.027661330242
 20
34.76301523595636
 30
0.0
 40
2.5
  1
-
 41
0.8
  7
高2.5
100
AcDbText
  0
LINE
  5
1044
330
1F
100
AcDbEntity
  8
0
 62
     7
100
AcDbLine
 10
1442.87050342182
 20
30.26301523595627
 30
0.0
 11
1508.877998931104
 21
30.26301523595634
 31
0.0
  0
TEXT
  5
1045
330
1F
100
AcDbEntity
  8
0
 62
     3
100
AcDbText
 10
1444.37050342182
 20
26.76301523595628
 30
0.0
 40
2.5
  1
4
 41
0.8
  7
高2.5
100
AcDbText
  0
LINE
  5
1046
330
1F
100
AcDbEntity
  8
0
 62
     7
100
AcDbLine
 10
1442.87050342182
 20
34.26301523595628
 30
0.0
 11
1508.877998931104
 21
34.26301523595635
 31
0.0
  0
TEXT
  5
1047
330
1F
100
AcDbEntity
  8
0
 62
     3
100
AcDbText
 10
1444.37050342182
 20
30.76301523595628
 30
0.0
 40
2.5
  1
5
 41
0.8
  7
高2.5
100
AcDbText
  0
TEXT
  5
1048
330
1F
100
AcDbEntity
  8
0
 62
     3
100
AcDbText
 10
1451.504412887256
 20
30.76301523595629
 30
0.0
 40
2.5
  1
補強リング
 41
0.8
  7
高2.5
100
AcDbText
  0
TEXT
  5
1049
330
1F
100
AcDbEntity
  8
0
 62
     3
100
AcDbText
 10
1476.492431648465
 20
30.7630152359563
 30
0.0
 40
2.5
  1
-
 41
0.8
  7
高2.5
100
AcDbText
  0
TEXT
  5
104A
330
1F
100
AcDbEntity
  8
0
 62
     3
100
AcDbText
 10
1489.157136912998
 20
30.76301523595632
 30
0.0
 40
2.5
  1
1
 41
0.8
  7
高2.5
100
AcDbText
  0
TEXT
  5
104B
330
1F
100
AcDbEntity
  8
0
 62
     3
100
AcDbText
 10
1496.027661330242
 20
30.76301523595635
 30
0.0
 40
2.5
  1
-
 41
0.8
  7
高2.5
100
AcDbText
  0
LINE
  5
104C
330
1F
100
AcDbEntity
  8
0
 62
     3
100
AcDbLine
 10
1442.87050342182
 20
38.26301523595629
 30
0.0
 11
1508.877998931104
 21
38.26301523595635
 31
0.0
  0
TEXT
  5
104D
330
1F
100
AcDbEntity
  8
0
 62
     3
100
AcDbText
 10
1444.37050342182
 20
34.76301523595629
 30
0.0
 40
2.5
  1
6
 41
0.8
  7
高2.5
100
AcDbText
  0
TEXT
  5
104E
330
1F
100
AcDbEntity
  8
0
 62
     3
100
AcDbText
 10
1451.504412887258
 20
18.76301523595627
 30
0.0
 40
2.5
  1
乳白カバー
 41
0.8
  7
高2.5
100
AcDbText
  0
TEXT
  5
104F
330
1F
100
AcDbEntity
  8
0
 62
     3
100
AcDbText
 10
1476.492431648465
 20
18.7630152359563
 30
0.0
 40
2.5
  1
PC
 41
0.8
  7
高2.5
100
AcDbText
  0
TEXT
  5
1050
330
1F
100
AcDbEntity
  8
0
 62
     3
100
AcDbText
 10
1489.157136912997
 20
18.76301523595632
 30
0.0
 40
2.5
  1
1
 41
0.8
  7
高2.5
100
AcDbText
  0
TEXT
  5
1051
330
1F
100
AcDbEntity
  8
0
 62
     3
100
AcDbText
 10
1496.027661330242
 20
18.76301523595632
 30
0.0
 40
2.5
  1
57195
 41
0.8
  7
高2.5
100
AcDbText
  0
TEXT
  5
1052
330
1F
100
AcDbEntity
  8
0
 62
     3
100
AcDbText
 10
1451.504412887257
 20
22.76301523595627
 30
0.0
 40
2.5
  1
フロント枠
 41
0.8
  7
高2.5
100
AcDbText
  0
TEXT
  5
1053
330
1F
100
AcDbEntity
  8
0
 62
     3
100
AcDbText
 10
1476.492431648465
 20
22.76301523595629
 30
0.0
 40
2.5
  1
PC
 41
0.8
  7
高2.5
100
AcDbText
  0
TEXT
  5
1054
330
1F
100
AcDbEntity
  8
0
 62
     3
100
AcDbText
 10
1489.157136912997
 20
22.7630152359563
 30
0.0
 40
2.5
  1
1
 41
0.8
  7
高2.5
100
AcDbText
  0
TEXT
  5
1055
330
1F
100
AcDbEntity
  8
0
 62
     3
100
AcDbText
 10
1496.027661330242
 20
22.76301523595632
 30
0.0
 40
2.5
  1
57197
 41
0.8
  7
高2.5
100
AcDbText
  0
TEXT
  5
1056
330
1F
100
AcDbEntity
  8
0
 62
     3
100
AcDbText
 10
1451.504412887257
 20
26.76301523595629
 30
0.0
 40
2.5
  1
フロントパッキン
 41
0.8
  7
高2.5
100
AcDbText
  0
TEXT
  5
1057
330
1F
100
AcDbEntity
  8
0
 62
     3
100
AcDbText
 10
1476.492431648465
 20
26.7630152359563
 30
0.0
 40
2.5
  1
シリコン
 41
0.8
  7
高2.5
100
AcDbText
  0
TEXT
  5
1058
330
1F
100
AcDbEntity
  8
0
 62
     3
100
AcDbText
 10
1489.157136912998
 20
26.76301523595632
 30
0.0
 40
2.5
  1
1
 41
0.8
  7
高2.5
100
AcDbText
  0
TEXT
  5
1059
330
1F
100
AcDbEntity
  8
0
 62
     3
100
AcDbText
 10
1496.027661330242
 20
26.76301523595632
 30
0.0
 40
2.5
  1
57198
 41
0.8
  7
高2.5
100
AcDbText
  0
TEXT
  5
105A
330
1F
100
AcDbEntity
  8
0
 62
     7
100
AcDbText
 10
1547.09560590621
 20
108.06632998574
 30
0.0
 40
2.5
  1
注４）照度は当社実測値の為、使用環境下により異なります。
 41
0.7
  7
高2.5
100
AcDbText
  0
TEXT
  5
105B
330
1F
100
AcDbEntity
  8
0
 62
     7
100
AcDbText
 10
1547.09560590621
 20
105.0663299857399
 30
0.0
 40
2.5
  1
注５）球寿命は光束が70%%%に低下するまでの時間です。
 41
0.7
  7
高2.5
100
AcDbText
  0
TEXT
  5
105C
330
1F
100
AcDbEntity
  8
0
 62
     7
100
AcDbText
 10
1547.09560590621
 20
102.06632998574
 30
0.0
 40
2.5
  1
　　　表示は設計値であり、製品の寿命を保証するものではありません。
 41
0.7
  7
高2.5
100
AcDbText
  0
TEXT
  5
105D
330
1F
100
AcDbEntity
  8
0
 62
     7
100
AcDbText
 10
1547.09560590621
 20
111.06632998574
 30
0.0
 40
2.5
  1
注３）()内数値は入力200Vでの値です。
 41
0.7
  7
高2.5
100
AcDbText
  0
TEXT
  5
105E
330
1F
100
AcDbEntity
  8
0
 62
     7
100
AcDbText
 10
1547.09560590621
 20
114.06632998574
 30
0.0
 40
2.5
  1
注２）LEDの光源色、明るさにはバラツキがあります。
 41
0.7
  7
高2.5
100
AcDbText
  0
TEXT
  5
105F
330
1F
100
AcDbEntity
  8
0
 62
     7
100
AcDbText
 10
1547.09560590621
 20
117.0663299857399
 30
0.0
 40
2.5
  1
注１）当器具のLED素子交換はできません。
 41
0.7
  7
高2.5
100
AcDbText
  0
TEXT
  5
1060
330
1F
100
AcDbEntity
  8
0
 62
     7
100
AcDbText
 10
1547.09560590621
 20
96.06632998573999
 30
0.0
 40
2.5
  1
注７）安全にご使用いただくため、取扱説明書をご参照ください。
 41
0.7
  7
高2.5
100
AcDbText
  0
TEXT
  5
1061
330
1F
100
AcDbEntity
  8
0
 62
     7
100
AcDbText
 10
1547.09560590621
 20
93.06632998574
 30
0.0
 40
2.5
  1
注８）仕様変更は予告なく行う場合があります。予めご了承ください。
 41
0.7
  7
高2.5
100
AcDbText
  0
TEXT
  5
1062
330
1F
100
AcDbEntity
  8
0
 62
     3
100
AcDbText
 10
1547.950894766213
 20
145.3300673630859
 30
0.0
 40
3.2
  1
サージ耐圧
  7
高3.2
100
AcDbText
  0
TEXT
  5
1063
330
1F
100
AcDbEntity
  8
0
 62
     3
100
AcDbText
 10
1572.878990338978
 20
145.3300673630859
 30
0.0
 40
3.2
  1
ライン間　6kV
 41
0.8
  7
高3.2
100
AcDbText
  0
TEXT
  5
1064
330
1F
100
AcDbEntity
  8
0
 62
     7
100
AcDbText
 10
1547.09560590621
 20
99.06632998574
 30
0.0
 40
2.5
  1
注６）サージ耐圧試験方法はIEC61000-4-5に準ずる。
 41
0.7
  7
高2.5
100
AcDbText
  0
LINE
  5
1065
330
1F
100
AcDbEntity
  8
0
 62
     7
100
AcDbLine
 10
1546.450894766213
 20
144.3300673630858
 30
0.0
 11
1618.841439583265
 21
144.3300673630858
 31
0.0
  0
LINE
  5
1066
330
1F
100
AcDbEntity
  8
0
  6
CENTER
 62
     7
100
AcDbLine
 10
1493.318028444534
 20
66.78920261206484
 30
0.0
 11
1493.318028444534
 21
142.6087438935883
 31
0.0
  0
LINE
  5
1067
330
1F
100
AcDbEntity
  8
0
  6
CENTER
 62
     7
100
AcDbLine
 10
1455.949678057688
 20
104.6989732528266
 30
0.0
 11
1530.68637883138
 21
104.6989732528266
 31
0.0
  0
CIRCLE
  5
1068
330
1F
100
AcDbEntity
  8
0
 62
     3
100
AcDbCircle
 10
1493.318028444534
 20
104.6989732528265
 30
0.0
 40
29.5
  0
CIRCLE
  5
1069
330
1F
100
AcDbEntity
  8
0
 62
     3
100
AcDbCircle
 10
1493.318028444534
 20
104.6989732528265
 30
0.0
 40
33.37499999999999
  0
CIRCLE
  5
106A
330
1F
100
AcDbEntity
  8
0
 62
     7
100
AcDbCircle
 10
1493.318028444534
 20
104.6989732528265
 30
0.0
 40
30.625
  0
CIRCLE
  5
106B
330
1F
100
AcDbEntity
  8
0
 62
     3
100
AcDbCircle
 10
1493.318028444534
 20
104.6989732528265
 30
0.0
 40
33.5
  0
CIRCLE
  5
106C
330
1F
100
AcDbEntity
  8
0
  6
HIDDEN
 62
     7
100
AcDbCircle
 10
1493.318028444535
 20
104.6989732528266
 30
0.0
 40
30.25
  0
CIRCLE
  5
106D
330
1F
100
AcDbEntity
  8
0
  6
HIDDEN
 62
     7
100
AcDbCircle
 10
1493.318028444535
 20
104.6989732528266
 30
0.0
 40
32.625
  0
CIRCLE
  5
1070
330
1F
100
AcDbEntity
  8
0
100
AcDbCircle
 10
1537.936512529842
 20
98.4492667088552
 30
0.0
 40
5.0
  0
TEXT
  5
1071
330
1F
100
AcDbEntity
  8
0
 62
     4
100
AcDbText
 10
1535.846873475414
 20
95.36495091048784
 30
0.0
 40
6.299999999999998
  1
2
  7
高6.3
100
AcDbText
  0
CIRCLE
  5
1072
330
1F
100
AcDbEntity
  8
0
100
AcDbCircle
 10
1537.936512529842
 20
109.7174620871012
 30
0.0
 40
5.0
  0
TEXT
  5
1073
330
1F
100
AcDbEntity
  8
0
 62
     4
100
AcDbText
 10
1535.984001727702
 20
106.6331462887339
 30
0.0
 40
6.299999999999998
  1
4
  7
高6.3
100
AcDbText
  0
LINE
  5
1075
330
1F
100
AcDbEntity
  8
0
  6
CENTER
100
AcDbLine
 10
1493.318028525414
 20
244.5647928686378
 30
0.0
 11
1493.318028525414
 21
150.6363158921162
 31
0.0
  0
LINE
  5
1078
330
1F
100
AcDbEntity
  8
0
 62
     7
100
AcDbLine
 10
1486.199040208908
 20
177.1924235116428
 30
0.0
 11
1486.199040208908
 21
177.3924231718963
 31
0.0
  0
LINE
  5
1079
330
1F
100
AcDbEntity
  8
0
 62
     7
100
AcDbLine
 10
1484.199040346742
 20
177.3924231718963
 30
0.0
 11
1484.199040346742
 21
177.1924235116428
 31
0.0
  0
LINE
  5
107A
330
1F
100
AcDbEntity
  8
0
 62
     7
100
AcDbLine
 10
1502.437016704083
 20
177.1924235116428
 30
0.0
 11
1502.437016704083
 21
177.3924231718963
 31
0.0
  0
LINE
  5
107B
330
1F
100
AcDbEntity
  8
0
 62
     7
100
AcDbLine
 10
1500.437016841919
 20
177.3924231718963
 30
0.0
 11
1500.437016841919
 21
177.1924235116428
 31
0.0
  0
LINE
  5
107C
330
1F
100
AcDbEntity
  8
0
 62
     7
100
AcDbLine
 10
1486.061540209653
 20
177.3924231718963
 30
0.0
 11
1486.061540209653
 21
177.642423678536
 31
0.0
  0
LINE
  5
107D
330
1F
100
AcDbEntity
  8
0
 62
     7
100
AcDbLine
 10
1484.33654081166
 20
177.642423678536
 30
0.0
 11
1484.33654081166
 21
177.3924231718963
 31
0.0
  0
LINE
  5
107E
330
1F
100
AcDbEntity
  8
0
 62
     7
100
AcDbLine
 10
1502.299516239167
 20
177.3924231718963
 30
0.0
 11
1502.299516239167
 21
177.642423678536
 31
0.0
  0
LINE
  5
107F
330
1F
100
AcDbEntity
  8
0
 62
     7
100
AcDbLine
 10
1500.574516841175
 20
177.642423678536
 30
0.0
 11
1500.574516841175
 21
177.3924231718963
 31
0.0
  0
ARC
  5
1080
330
1F
100
AcDbEntity
  8
0
 62
     7
100
AcDbCircle
 10
1502.175603123261
 20
177.7674235712474
 30
0.0
 40
0.1250000000000083
100
AcDbArc
 50
270.0
 51
5.000000000006656
  0
ARC
  5
1081
330
1F
100
AcDbEntity
  8
0
 62
     7
100
AcDbCircle
 10
1500.698430248528
 20
177.7674235712474
 30
0.0
 40
0.125
100
AcDbArc
 50
174.9999999999932
 51
270.0
  0
LINE
  5
1082
330
1F
100
AcDbEntity
  8
0
 62
     7
100
AcDbLine
 10
1502.300127186777
 20
177.778317612011
 30
0.0
 11
1502.282578275503
 21
177.9789077307768
 31
0.0
  0
LINE
  5
1083
330
1F
100
AcDbEntity
  8
0
 62
     7
100
AcDbLine
 10
1500.591455270502
 20
177.9789077307768
 30
0.0
 11
1500.573905893566
 21
177.778317612011
 31
0.0
  0
ARC
  5
1084
330
1F
100
AcDbEntity
  8
0
 62
     7
100
AcDbCircle
 10
1502.033529426126
 20
177.9571192046205
 30
0.0
 40
0.2500000000000166
100
AcDbArc
 50
5.000000000006656
 51
62.91349992211141
  0
ARC
  5
1085
330
1F
100
AcDbEntity
  8
0
 62
     7
100
AcDbCircle
 10
1500.840503945659
 20
177.9571192046205
 30
0.0
 40
0.2499999999999958
100
AcDbArc
 50
117.1556440474426
 51
174.9999999999932
  0
ARC
  5
1086
330
1F
100
AcDbEntity
  8
0
 62
     7
100
AcDbCircle
 10
1485.937626802301
 20
177.7674235712474
 30
0.0
 40
0.125
100
AcDbArc
 50
270.0
 51
5.000000000006656
  0
ARC
  5
1087
330
1F
100
AcDbEntity
  8
0
 62
     7
100
AcDbCircle
 10
1484.460453927567
 20
177.7674235712474
 30
0.0
 40
0.1250000000000083
100
AcDbArc
 50
174.9999999999932
 51
270.0
  0
LINE
  5
1088
330
1F
100
AcDbEntity
  8
0
 62
     7
100
AcDbLine
 10
1486.062151157262
 20
177.778317612011
 30
0.0
 11
1486.044601780326
 21
177.9789077307768
 31
0.0
  0
LINE
  5
1089
330
1F
100
AcDbEntity
  8
0
 62
     7
100
AcDbLine
 10
1484.353478775323
 20
177.9789077307768
 30
0.0
 11
1484.335929864051
 21
177.778317612011
 31
0.0
  0
ARC
  5
108A
330
1F
100
AcDbEntity
  8
0
 62
     7
100
AcDbCircle
 10
1485.795553105166
 20
177.9571192046205
 30
0.0
 40
0.2499999999999884
100
AcDbArc
 50
5.000000000006656
 51
62.91349992211141
  0
ARC
  5
108B
330
1F
100
AcDbEntity
  8
0
 62
     7
100
AcDbCircle
 10
1484.602527624699
 20
177.9571192046205
 30
0.0
 40
0.2500000000000166
100
AcDbArc
 50
117.1556440474426
 51
174.9999999999932
  0
ARC
  5
108C
330
1F
100
AcDbEntity
  8
0
 62
     3
100
AcDbCircle
 10
1482.693028525414
 20
177.0674235712476
 30
0.0
 40
0.125
100
AcDbArc
 50
90.0
 51
180.0
  0
ARC
  5
108D
330
1F
100
AcDbEntity
  8
0
 62
     3
100
AcDbCircle
 10
1503.943028525414
 20
177.0674235712476
 30
0.0
 40
0.125
100
AcDbArc
 50
0.0
 51
90.0
  0
ARC
  5
108E
330
1F
100
AcDbEntity
  8
0
 62
     3
100
AcDbCircle
 10
1482.693028525414
 20
176.8174235712476
 30
0.0
 40
0.1250000000000142
100
AcDbArc
 50
180.0
 51
270.0
  0
ARC
  5
108F
330
1F
100
AcDbEntity
  8
0
 62
     3
100
AcDbCircle
 10
1503.943028525414
 20
176.8174235712476
 30
0.0
 40
0.1250000000000142
100
AcDbArc
 50
270.0
 51
0.0
  0
LINE
  5
1090
330
1F
100
AcDbEntity
  8
0
 62
     3
100
AcDbLine
 10
1482.568028160334
 20
177.0674232583231
 30
0.0
 11
1482.568028160334
 21
176.8174236830063
 31
0.0
  0
LINE
  5
1091
330
1F
100
AcDbEntity
  8
0
 62
     3
100
AcDbLine
 10
1504.068028890491
 20
176.8174236830063
 30
0.0
 11
1504.068028890491
 21
177.0674232583231
 31
0.0
  0
LINE
  5
1092
330
1F
100
AcDbEntity
  8
0
 62
     3
100
AcDbLine
 10
1485.918028523179
 20
178.2049238871521
 30
0.0
 11
1485.842414909008
 21
178.2003324668592
 31
0.0
  0
LINE
  5
1093
330
1F
100
AcDbEntity
  8
0
 62
     3
100
AcDbLine
 10
1500.793642141821
 20
178.2003324668592
 30
0.0
 11
1500.718028527648
 21
178.2049238871521
 31
0.0
  0
LINE
  5
1094
330
1F
100
AcDbEntity
  8
0
 62
     3
100
AcDbLine
 10
1459.818027690949
 20
166.6424235635176
 30
0.0
 11
1459.919605181517
 21
164.7042539160436
 31
0.0
  0
LINE
  5
1095
330
1F
100
AcDbEntity
  8
0
 62
     3
100
AcDbLine
 10
1526.716451869311
 20
164.7042539160436
 30
0.0
 11
1526.818029359878
 21
166.6424235635176
 31
0.0
  0
ARC
  5
1096
330
1F
100
AcDbEntity
  8
0
 62
     3
100
AcDbCircle
 10
1460.543747154864
 20
164.7369638365976
 30
0.0
 40
0.6249999999999921
100
AcDbArc
 50
182.999999999865
 51
260.8958719752646
  0
ARC
  5
1097
330
1F
100
AcDbEntity
  8
0
 62
     3
100
AcDbCircle
 10
1526.092309895964
 20
164.7369638365976
 30
0.0
 40
0.6249999999999898
100
AcDbArc
 50
279.1041280247354
 51
357.0000000001348
  0
ARC
  5
1098
330
1F
100
AcDbEntity
  8
0
 62
     3
100
AcDbCircle
 10
1461.631572957789
 20
171.525355400325
 30
0.0
 40
7.5
100
AcDbArc
 50
260.8958719733647
 51
270.0
  0
ARC
  5
1099
330
1F
100
AcDbEntity
  8
0
 62
     3
100
AcDbCircle
 10
1525.004484093039
 20
171.525355400325
 30
0.0
 40
7.5
100
AcDbArc
 50
270.0
 51
279.1041280266353
  0
LINE
  5
109A
330
1F
100
AcDbEntity
  8
0
 62
     3
100
AcDbLine
 10
1461.631573514045
 20
164.0253553822375
 30
0.0
 11
1525.004483536782
 21
164.0253553822375
 31
0.0
  0
LINE
  5
109B
330
1F
100
AcDbEntity
  8
0
 62
     3
100
AcDbLine
 10
1526.755530164542
 20
166.6424235635176
 30
0.0
 11
1526.730056629481
 21
167.128447578635
 31
0.0
  0
LINE
  5
109C
330
1F
100
AcDbEntity
  8
0
 62
     3
100
AcDbLine
 10
1459.906000421347
 20
167.128447578635
 30
0.0
 11
1459.880526886285
 21
166.6424235635176
 31
0.0
  0
ARC
  5
109D
330
1F
100
AcDbEntity
  8
0
 62
     3
100
AcDbCircle
 10
1460.280486041241
 20
167.1088216216084
 30
0.0
 40
0.375
100
AcDbArc
 50
90.0
 51
176.9999999997208
  0
ARC
  5
109E
330
1F
100
AcDbEntity
  8
0
 62
     3
100
AcDbCircle
 10
1526.35557100959
 20
167.1088216216084
 30
0.0
 40
0.375
100
AcDbArc
 50
3.000000000285508
 51
90.0
  0
LINE
  5
109F
330
1F
100
AcDbEntity
  8
0
 62
     3
100
AcDbLine
 10
1487.510457412303
 20
169.7191649771965
 30
0.0
 11
1487.421423439831
 21
167.958877999682
 31
0.0
  0
SPLINE
  5
10A0
330
1F
100
AcDbEntity
  8
0
 62
     3
100
AcDbSpline
210
0.0
220
0.0
230
1.0
 70
     8
 71
     3
 72
    15
 73
    11
 74
     0
 42
0.0000000001
 43
0.0000000001
 40
0.0
 40
0.0
 40
0.0
 40
0.0
 40
0.1397549300047868
 40
0.2666118621491493
 40
0.3268870585929314
 40
0.3869554642407915
 40
0.5121605577941556
 40
0.6421650453817052
 40
0.7685226771255396
 40
1.0
 40
1.0
 40
1.0
 40
1.0
 10
1504.901316725612
 20
167.501910142947
 30
0.0
 10
1504.887362562969
 20
167.5031504110535
 30
0.0
 10
1504.860742068887
 20
167.5055164827866
 30
0.0
 10
1504.798371394188
 20
167.5229294162938
 30
0.0
 10
1504.743359571499
 20
167.5459294773945
 30
0.0
 10
1504.686333879458
 20
167.5758390985461
 30
0.0
 10
1504.616647914208
 20
167.6267386523756
 30
0.0
 10
1504.548195074938
 20
167.7035453284396
 30
0.0
 10
1504.479959338908
 20
167.8178072376917
 30
0.0
 10
1504.465305968859
 20
167.9140897379155
 30
0.0
 10
1504.455826953948
 20
167.9763732434919
 30
0.0
  0
LINE
  5
10A1
330
1F
100
AcDbEntity
  8
0
 62
     3
100
AcDbLine
 10
1482.277746089699
 20
169.7185416895634
 30
0.0
 11
1482.179295980335
 21
167.9592642657197
 31
0.0
  0
LINE
  5
10A2
330
1F
100
AcDbEntity
  8
0
 62
     3
100
AcDbLine
 10
1504.4567862162
 20
167.9588168816379
 30
0.0
 11
1504.358319343031
 21
169.7183940749355
 31
0.0
  0
LINE
  5
10A3
330
1F
100
AcDbEntity
  8
0
 62
     3
100
AcDbLine
 10
1478.609516062737
 20
167.9611919870338
 30
0.0
 11
1478.598922268451
 21
168.2038330662735
 31
0.0
  0
LINE
  5
10A4
330
1F
100
AcDbEntity
  8
0
 62
     3
100
AcDbLine
 10
1476.662112177313
 20
168.2033285222686
 30
0.0
 11
1476.651541666091
 21
167.9611919870338
 31
0.0
  0
LINE
  5
10A5
330
1F
100
AcDbEntity
  8
0
 62
     3
100
AcDbLine
 10
1509.984515384734
 20
167.9612011838442
 30
0.0
 11
1509.973944873514
 21
168.2033285222686
 31
0.0
  0
LINE
  5
10A6
330
1F
100
AcDbEntity
  8
0
 62
     3
100
AcDbLine
 10
1508.037134782376
 20
168.2038330662735
 30
0.0
 11
1508.026541919411
 21
167.9612011838442
 31
0.0
  0
ARC
  5
10A7
330
1F
100
AcDbEntity
  8
0
 62
     3
100
AcDbCircle
 10
1478.3491819323
 20
168.1924235712475
 30
0.0
 40
0.250000000000017
100
AcDbArc
 50
2.741138467045267
 51
90.0
  0
ARC
  5
10A8
330
1F
100
AcDbEntity
  8
0
 62
     3
100
AcDbCircle
 10
1476.911875118525
 20
168.1924235712475
 30
0.0
 40
0.2500000000000697
100
AcDbArc
 50
90.0
 51
177.5000000000044
  0
ARC
  5
10A9
330
1F
100
AcDbEntity
  8
0
 62
     3
100
AcDbCircle
 10
1509.7241819323
 20
168.1924235712475
 30
0.0
 40
0.25
100
AcDbArc
 50
2.499999999995578
 51
90.0
  0
ARC
  5
10AA
330
1F
100
AcDbEntity
  8
0
 62
     3
100
AcDbCircle
 10
1508.286875118526
 20
168.1924235712475
 30
0.0
 40
0.25
100
AcDbArc
 50
90.0
 51
177.3476932303724
  0
LINE
  5
10AB
330
1F
100
AcDbEntity
  8
0
 62
     3
100
AcDbLine
 10
1499.089312051386
 20
170.1854523461052
 30
0.0
 11
1498.885200601966
 21
174.8603759523219
 31
0.0
  0
LINE
  5
10AC
330
1F
100
AcDbEntity
  8
0
 62
     3
100
AcDbLine
 10
1497.301506121606
 20
174.8603759523219
 30
0.0
 11
1496.99181342587
 21
167.7672448757774
 31
0.0
  0
LINE
  5
10AD
330
1F
100
AcDbEntity
  8
0
 62
     3
100
AcDbLine
 10
1489.644246884585
 20
167.7671731639393
 30
0.0
 11
1489.334550929219
 21
174.8603759523219
 31
0.0
  0
LINE
  5
10AE
330
1F
100
AcDbEntity
  8
0
 62
     3
100
AcDbLine
 10
1487.750856448862
 20
174.8603759523219
 30
0.0
 11
1487.556332965346
 21
170.4050530869252
 31
0.0
  0
ARC
  5
10AF
330
1F
100
AcDbEntity
  8
0
 62
     3
100
AcDbCircle
 10
1487.875737414901
 20
174.8549235712476
 30
0.0
 40
0.1250000000000136
100
AcDbArc
 50
90.0
 51
177.4999999990403
  0
ARC
  5
10B0
330
1F
100
AcDbEntity
  8
0
 62
     3
100
AcDbCircle
 10
1489.209669864255
 20
174.8549235712476
 30
0.0
 40
0.1250000000000136
100
AcDbArc
 50
2.500000000959691
 51
90.0
  0
ARC
  5
10B1
330
1F
100
AcDbEntity
  8
0
 62
     3
100
AcDbCircle
 10
1497.426387186581
 20
174.8549235712476
 30
0.0
 40
0.1250000000000988
100
AcDbArc
 50
90.0
 51
177.4999999990436
  0
ARC
  5
10B2
330
1F
100
AcDbEntity
  8
0
 62
     3
100
AcDbCircle
 10
1498.760319635936
 20
174.8549235712476
 30
0.0
 40
0.1250000000001272
100
AcDbArc
 50
2.500000000956438
 51
90.0
  0
LINE
  5
10B3
330
1F
100
AcDbEntity
  8
0
 62
     3
100
AcDbLine
 10
1477.376706675591
 20
169.7182385440653
 30
0.0
 11
1477.314255909026
 21
168.6711530390865
 31
0.0
  0
LINE
  5
10B4
330
1F
100
AcDbEntity
  8
0
 62
     3
100
AcDbLine
 10
1509.321754575672
 20
168.671911368493
 30
0.0
 11
1509.259350375237
 21
169.7182357500976
 31
0.0
  0
LINE
  5
10B5
330
1F
100
AcDbEntity
  8
0
 62
     3
100
AcDbLine
 10
1503.584175148012
 20
173.285841495145
 30
0.0
 11
1503.515429572167
 21
174.8603759523219
 31
0.0
  0
LINE
  5
10B6
330
1F
100
AcDbEntity
  8
0
 62
     3
100
AcDbLine
 10
1501.931735091806
 20
174.8603759523219
 30
0.0
 11
1501.622039602103
 21
167.7671742116771
 31
0.0
  0
LINE
  5
10B7
330
1F
100
AcDbEntity
  8
0
 62
     3
100
AcDbLine
 10
1485.014014654756
 20
167.7672449921927
 30
0.0
 11
1484.704321959019
 21
174.8603759523219
 31
0.0
  0
LINE
  5
10B8
330
1F
100
AcDbEntity
  8
0
 62
     3
100
AcDbLine
 10
1483.12062747866
 20
174.8603759523219
 30
0.0
 11
1483.051066995563
 21
173.2671898979431
 31
0.0
  0
ARC
  5
10B9
330
1F
100
AcDbEntity
  8
0
 62
     3
100
AcDbCircle
 10
1483.245508359287
 20
174.8549235712476
 30
0.0
 40
0.125
100
AcDbArc
 50
90.0
 51
177.499999999037
  0
ARC
  5
10BA
330
1F
100
AcDbEntity
  8
0
 62
     3
100
AcDbCircle
 10
1484.579440808641
 20
174.8549235712476
 30
0.0
 40
0.125
100
AcDbArc
 50
2.500000000962945
 51
90.0
  0
ARC
  5
10BB
330
1F
100
AcDbEntity
  8
0
 62
     3
100
AcDbCircle
 10
1502.056616242195
 20
174.8549235712476
 30
0.0
 40
0.125
100
AcDbArc
 50
90.0
 51
177.499999999037
  0
ARC
  5
10BC
330
1F
100
AcDbEntity
  8
0
 62
     3
100
AcDbCircle
 10
1503.390548691549
 20
174.8549235712476
 30
0.0
 40
0.125
100
AcDbArc
 50
2.500000000962945
 51
90.0
  0
LINE
  5
10BD
330
1F
100
AcDbEntity
  8
0
 62
     3
100
AcDbLine
 10
1500.953794234397
 20
167.7799339130258
 30
0.0
 11
1500.739889928103
 21
171.8614655736572
 31
0.0
  0
LINE
  5
10BE
330
1F
100
AcDbEntity
  8
0
 62
     3
100
AcDbLine
 10
1499.225347545895
 20
171.8614655736572
 30
0.0
 11
1499.117443115415
 21
169.8025204431003
 31
0.0
  0
ARC
  5
10BF
330
1F
100
AcDbEntity
  8
0
 62
     3
100
AcDbCircle
 10
1500.61506141437
 20
171.8549235712474
 30
0.0
 40
0.1250000000000067
100
AcDbArc
 50
2.999999999747698
 51
90.0
  0
ARC
  5
10C0
330
1F
100
AcDbEntity
  8
0
 62
     3
100
AcDbCircle
 10
1499.350176459238
 20
171.8549235712474
 30
0.0
 40
0.1250000000000067
100
AcDbArc
 50
90.0
 51
177.0000000002523
  0
LINE
  5
10C1
330
1F
100
AcDbEntity
  8
0
 62
     3
100
AcDbLine
 10
1472.956148684921
 20
169.7163980178273
 30
0.0
 11
1472.848249376716
 21
167.9622465934343
 31
0.0
  0
LINE
  5
10C2
330
1F
100
AcDbEntity
  8
0
 62
     3
100
AcDbLine
 10
1513.787772283854
 20
167.9628206373861
 30
0.0
 11
1513.679891602101
 21
169.7166774145997
 31
0.0
  0
LINE
  5
10C3
330
1F
100
AcDbEntity
  8
0
 62
     3
100
AcDbLine
 10
1476.717483029664
 20
168.3496220692729
 30
0.0
 11
1476.433217302861
 21
174.8603759523219
 31
0.0
  0
LINE
  5
10C4
330
1F
100
AcDbEntity
  8
0
 62
     3
100
AcDbLine
 10
1474.849521891177
 20
174.8603759523219
 30
0.0
 11
1474.807044268549
 21
173.8874619085079
 31
0.0
  0
LINE
  5
10C5
330
1F
100
AcDbEntity
  8
0
 62
     3
100
AcDbLine
 10
1511.828299389184
 20
173.9038271087891
 30
0.0
 11
1511.786535159648
 21
174.8603759523219
 31
0.0
  0
LINE
  5
10C6
330
1F
100
AcDbEntity
  8
0
 62
     3
100
AcDbLine
 10
1510.202839747966
 20
174.8603759523219
 30
0.0
 11
1509.918574021161
 21
168.3496220692729
 31
0.0
  0
ARC
  5
10C7
330
1F
100
AcDbEntity
  8
0
 62
     3
100
AcDbCircle
 10
1510.327721567121
 20
174.8549235712476
 30
0.0
 40
0.1250000000006099
100
AcDbArc
 50
90.0
 51
177.4999999990532
  0
ARC
  5
10C8
330
1F
100
AcDbEntity
  8
0
 62
     3
100
AcDbCircle
 10
1511.661654016476
 20
174.8549235712476
 30
0.0
 40
0.1250000000005815
100
AcDbArc
 50
2.500000000946778
 51
90.0
  0
ARC
  5
10C9
330
1F
100
AcDbEntity
  8
0
 62
     3
100
AcDbCircle
 10
1474.974403034361
 20
174.8549235712476
 30
0.0
 40
0.1250000000000704
100
AcDbArc
 50
90.0
 51
177.4999999990403
  0
ARC
  5
10CA
330
1F
100
AcDbEntity
  8
0
 62
     3
100
AcDbCircle
 10
1476.308335483716
 20
174.8549235712476
 30
0.0
 40
0.1250000000000704
100
AcDbArc
 50
2.500000000959691
 51
90.0
  0
LINE
  5
10CB
330
1F
100
AcDbEntity
  8
0
 62
     3
100
AcDbLine
 10
1469.15061190814
 20
169.7166923157609
 30
0.0
 11
1469.042736814323
 21
167.9629577746353
 31
0.0
  0
LINE
  5
10CC
330
1F
100
AcDbEntity
  8
0
 62
     3
100
AcDbLine
 10
1517.593299747408
 20
167.963266275238
 30
0.0
 11
1517.485454455914
 21
169.7165384147054
 31
0.0
  0
LINE
  5
10CD
330
1F
100
AcDbEntity
  8
0
 62
     3
100
AcDbLine
 10
1494.265078460761
 20
171.3056503984815
 30
0.0
 11
1494.098960548604
 21
175.1103764589614
 31
0.0
  0
LINE
  5
10CE
330
1F
100
AcDbEntity
  8
0
 62
     3
100
AcDbLine
 10
1492.537096502225
 20
175.1103764589614
 30
0.0
 11
1492.370978706482
 21
171.3056522611266
 31
0.0
  0
ARC
  5
10CF
330
1F
100
AcDbEntity
  8
0
 62
     3
100
AcDbCircle
 10
1492.661977536463
 20
175.1049235712476
 30
0.0
 40
0.125
100
AcDbArc
 50
90.0
 51
177.5000000017454
  0
ARC
  5
10D0
330
1F
100
AcDbEntity
  8
0
 62
     3
100
AcDbCircle
 10
1493.974079514363
 20
175.1049235712476
 30
0.0
 40
0.125
100
AcDbArc
 50
2.499999998251289
 51
90.0
  0
LINE
  5
10D1
330
1F
100
AcDbEntity
  8
0
 62
     3
100
AcDbLine
 10
1515.214139373005
 20
173.9890733923501
 30
0.0
 11
1515.176098571122
 21
174.8603759523219
 31
0.0
  0
LINE
  5
10D2
330
1F
100
AcDbEntity
  8
0
 62
     3
100
AcDbLine
 10
1513.59240315944
 20
174.8603759523219
 30
0.0
 11
1513.433191702666
 21
171.2138257179146
 31
0.0
  0
LINE
  5
10D3
330
1F
100
AcDbEntity
  8
0
 62
     3
100
AcDbLine
 10
1473.203906566799
 20
171.1899787377306
 30
0.0
 11
1473.043653891385
 21
174.8603759523219
 31
0.0
  0
LINE
  5
10D4
330
1F
100
AcDbEntity
  8
0
 62
     3
100
AcDbLine
 10
1471.459958479703
 20
174.8603759523219
 30
0.0
 11
1471.422215701044
 21
173.995909765709
 31
0.0
  0
ARC
  5
10D5
330
1F
100
AcDbEntity
  8
0
 62
     3
100
AcDbCircle
 10
1471.58484011497
 20
174.8549235712476
 30
0.0
 40
0.1250000000003118
100
AcDbArc
 50
90.0
 51
177.4999999990467
  0
ARC
  5
10D6
330
1F
100
AcDbEntity
  8
0
 62
     3
100
AcDbCircle
 10
1472.918772564323
 20
174.8549235712476
 30
0.0
 40
0.125000000000326
100
AcDbArc
 50
2.500000000953285
 51
90.0
  0
ARC
  5
10D7
330
1F
100
AcDbEntity
  8
0
 62
     3
100
AcDbCircle
 10
1513.717284486511
 20
174.8549235712476
 30
0.0
 40
0.1250000000002408
100
AcDbArc
 50
90.0
 51
177.4999999990436
  0
ARC
  5
10D8
330
1F
100
AcDbEntity
  8
0
 62
     3
100
AcDbCircle
 10
1515.051216935866
 20
174.8549235712476
 30
0.0
 40
0.1250000000002124
100
AcDbArc
 50
2.500000000956438
 51
90.0
  0
LINE
  5
10D9
330
1F
100
AcDbEntity
  8
0
 62
     3
100
AcDbLine
 10
1484.749110192955
 20
174.5343581031747
 30
0.0
 11
1484.72396075815
 21
175.1103764589614
 31
0.0
  0
LINE
  5
10DA
330
1F
100
AcDbEntity
  8
0
 62
     3
100
AcDbLine
 10
1483.162096478941
 20
175.1103764589614
 30
0.0
 11
1483.154693395794
 21
174.9408170770591
 31
0.0
  0
LINE
  5
10DB
330
1F
100
AcDbEntity
  8
0
 62
     3
100
AcDbLine
 10
1503.481363655032
 20
174.9408170770591
 30
0.0
 11
1503.473960571888
 21
175.1103764589614
 31
0.0
  0
LINE
  5
10DC
330
1F
100
AcDbEntity
  8
0
 62
     3
100
AcDbLine
 10
1501.912096292676
 20
175.1103764589614
 30
0.0
 11
1501.88694685787
 21
174.5343581031747
 31
0.0
  0
ARC
  5
10DD
330
1F
100
AcDbEntity
  8
0
 62
     3
100
AcDbCircle
 10
1483.286977536463
 20
175.1049235712476
 30
0.0
 40
0.125
100
AcDbArc
 50
90.0
 51
177.5000000017389
  0
ARC
  5
10DE
330
1F
100
AcDbEntity
  8
0
 62
     3
100
AcDbCircle
 10
1484.599079514363
 20
175.1049235712476
 30
0.0
 40
0.125
100
AcDbArc
 50
2.499999998261051
 51
90.0
  0
ARC
  5
10DF
330
1F
100
AcDbEntity
  8
0
 62
     3
100
AcDbCircle
 10
1502.036977536463
 20
175.1049235712476
 30
0.0
 40
0.125
100
AcDbArc
 50
90.0
 51
177.5000000017454
  0
ARC
  5
10E0
330
1F
100
AcDbEntity
  8
0
 62
     3
100
AcDbCircle
 10
1503.349079514363
 20
175.1049235712476
 30
0.0
 40
0.125
100
AcDbArc
 50
2.499999998251289
 51
90.0
  0
LINE
  5
10E1
330
1F
100
AcDbEntity
  8
0
 62
     3
100
AcDbLine
 10
1521.468562782707
 20
167.9611944317555
 30
0.0
 11
1521.45799040884
 21
168.2033285222686
 31
0.0
  0
LINE
  5
10E2
330
1F
100
AcDbEntity
  8
0
 62
     3
100
AcDbLine
 10
1465.178066641988
 20
168.2033285222686
 30
0.0
 11
1465.16749426812
 21
167.9612006017675
 31
0.0
  0
ARC
  5
10E3
330
1F
100
AcDbEntity
  8
0
 62
     3
100
AcDbCircle
 10
1465.427828074802
 20
168.1924235712475
 30
0.0
 40
0.2500000000000413
100
AcDbArc
 50
90.0
 51
177.5000000000044
  0
ARC
  5
10E4
330
1F
100
AcDbEntity
  8
0
 62
     3
100
AcDbCircle
 10
1521.208228976025
 20
168.1924235712475
 30
0.0
 40
0.25
100
AcDbArc
 50
2.499999999998832
 51
90.0
  0
LINE
  5
10E5
330
1F
100
AcDbEntity
  8
0
 62
     3
100
AcDbLine
 10
1520.622789637149
 20
168.6719118341541
 30
0.0
 11
1520.56038357407
 21
169.7182366814203
 31
0.0
  0
LINE
  5
10E6
330
1F
100
AcDbEntity
  8
0
 62
     3
100
AcDbLine
 10
1466.075673476756
 20
169.7182413380331
 30
0.0
 11
1466.013263688386
 21
168.6718587487675
 31
0.0
  0
LINE
  5
10E7
330
1F
100
AcDbEntity
  8
0
 62
     3
100
AcDbLine
 10
1490.930960058198
 20
174.8153856213874
 30
0.0
 11
1490.812441809999
 21
174.8153865527099
 31
0.0
  0
LINE
  5
10E8
330
1F
100
AcDbEntity
  8
0
 62
     3
100
AcDbLine
 10
1495.823614309505
 20
174.8153856213874
 30
0.0
 11
1495.705096992628
 21
174.8153856213874
 31
0.0
  0
LINE
  5
10E9
330
1F
100
AcDbEntity
  8
0
 62
     3
100
AcDbLine
 10
1491.649704529867
 20
170.7558646056539
 30
0.0
 11
1491.565003884921
 21
172.4304761927313
 31
0.0
  0
LINE
  5
10EA
330
1F
100
AcDbEntity
  8
0
 62
     3
100
AcDbLine
 10
1495.071055727044
 20
172.4305250871666
 30
0.0
 11
1494.986352520958
 21
170.7558646056539
 31
0.0
  0
LINE
  5
10EB
330
1F
100
AcDbEntity
  8
0
 62
     3
100
AcDbLine
 10
1519.98466044754
 20
174.0991128798312
 30
0.0
 11
1519.951423407497
 21
174.8603759523219
 31
0.0
  0
LINE
  5
10EC
330
1F
100
AcDbEntity
  8
0
 62
     3
100
AcDbLine
 10
1518.367727995815
 20
174.8603759523219
 30
0.0
 11
1518.355751187504
 21
174.5860669951625
 31
0.0
  0
LINE
  5
10ED
330
1F
100
AcDbEntity
  8
0
 62
     3
100
AcDbLine
 10
1468.279799223841
 20
174.5976368155068
 30
0.0
 11
1468.268329055013
 21
174.8603759523219
 31
0.0
  0
LINE
  5
10EE
330
1F
100
AcDbEntity
  8
0
 62
     3
100
AcDbLine
 10
1466.684633643332
 20
174.8603759523219
 30
0.0
 11
1466.652577520313
 21
174.1261603500432
 31
0.0
  0
LINE
  5
10EF
330
1F
100
AcDbEntity
  8
0
 62
     3
100
AcDbLine
 10
1510.342633129061
 20
174.9799233119673
 30
0.0
 11
1510.336937160196
 21
175.1103764589614
 31
0.0
  0
LINE
  5
10F0
330
1F
100
AcDbEntity
  8
0
 62
     3
100
AcDbLine
 10
1508.775072880985
 20
175.1103764589614
 30
0.0
 11
1508.755364232661
 21
174.6589821021742
 31
0.0
  0
LINE
  5
10F1
330
1F
100
AcDbEntity
  8
0
 62
     3
100
AcDbLine
 10
1477.880692818167
 20
174.6589821021742
 30
0.0
 11
1477.860984169843
 21
175.1103764589614
 31
0.0
  0
LINE
  5
10F2
330
1F
100
AcDbEntity
  8
0
 62
     3
100
AcDbLine
 10
1476.299119890632
 20
175.1103764589614
 30
0.0
 11
1476.293423921766
 21
174.9799233119673
 31
0.0
  0
LINE
  5
10F3
330
1F
100
AcDbEntity
  8
0
 62
     3
100
AcDbLine
 10
1463.824655638041
 20
169.719374291945
 30
0.0
 11
1463.726177589
 21
167.9596087386569
 31
0.0
  0
LINE
  5
10F4
330
1F
100
AcDbEntity
  8
0
 62
     3
100
AcDbLine
 10
1522.909948379696
 20
167.9583757839835
 30
0.0
 11
1522.811457292141
 21
169.7183877885079
 31
0.0
  0
ARC
  5
10F5
330
1F
100
AcDbEntity
  8
0
 62
     3
100
AcDbCircle
 10
1518.492609372362
 20
174.8549235712476
 30
0.0
 40
0.125
100
AcDbArc
 50
90.0
 51
177.499999999037
  0
ARC
  5
10F6
330
1F
100
AcDbEntity
  8
0
 62
     3
100
AcDbCircle
 10
1519.826541821716
 20
174.8549235712476
 30
0.0
 40
0.125
100
AcDbArc
 50
2.500000000962945
 51
90.0
  0
ARC
  5
10F7
330
1F
100
AcDbEntity
  8
0
 62
     3
100
AcDbCircle
 10
1466.809515229137
 20
174.8549235712476
 30
0.0
 40
0.125
100
AcDbArc
 50
90.0
 51
177.499999999037
  0
ARC
  5
10F8
330
1F
100
AcDbEntity
  8
0
 62
     3
100
AcDbCircle
 10
1468.143447678491
 20
174.8549235712476
 30
0.0
 40
0.125
100
AcDbArc
 50
2.500000000962945
 51
90.0
  0
ARC
  5
10F9
330
1F
100
AcDbEntity
  8
0
 62
     3
100
AcDbCircle
 10
1508.899953857421
 20
175.1049235712476
 30
0.0
 40
0.1250000000000113
100
AcDbArc
 50
90.0
 51
177.5000000017454
  0
ARC
  5
10FA
330
1F
100
AcDbEntity
  8
0
 62
     3
100
AcDbCircle
 10
1510.212055835321
 20
175.1049235712476
 30
0.0
 40
0.1250000000000397
100
AcDbArc
 50
2.499999998251289
 51
90.0
  0
ARC
  5
10FB
330
1F
100
AcDbEntity
  8
0
 62
     3
100
AcDbCircle
 10
1476.424001215506
 20
175.1049235712476
 30
0.0
 40
0.125
100
AcDbArc
 50
90.0
 51
177.5000000017357
  0
ARC
  5
10FC
330
1F
100
AcDbEntity
  8
0
 62
     3
100
AcDbCircle
 10
1477.736103193406
 20
175.1049235712476
 30
0.0
 40
0.125
100
AcDbArc
 50
2.499999998261051
 51
90.0
  0
LINE
  5
10FD
330
1F
100
AcDbEntity
  8
0
 62
     3
100
AcDbLine
 10
1484.281288237274
 20
176.4555070738977
 30
0.0
 11
1484.217057713272
 21
175.2299238186067
 31
0.0
  0
LINE
  5
10FE
330
1F
100
AcDbEntity
  8
0
 62
     3
100
AcDbLine
 10
1502.419320643844
 20
175.2299238186067
 30
0.0
 11
1502.35509011984
 21
176.4555070738977
 31
0.0
  0
LINE
  5
10FF
330
1F
100
AcDbEntity
  8
0
 62
     3
100
AcDbLine
 10
1521.220756472054
 20
174.2037758420891
 30
0.0
 11
1521.19208850056
 21
174.8603759523219
 31
0.0
  0
LINE
  5
1100
330
1F
100
AcDbEntity
  8
0
 62
     3
100
AcDbLine
 10
1465.443968550267
 20
174.8603759523219
 30
0.0
 11
1465.41529871613
 21
174.2037208940572
 31
0.0
  0
ARC
  5
1101
330
1F
100
AcDbEntity
  8
0
 62
     3
100
AcDbCircle
 10
1484.530945431012
 20
176.4424235712476
 30
0.0
 40
0.2500000000003962
100
AcDbArc
 50
90.0
 51
177.0000095039137
  0
ARC
  5
1102
330
1F
100
AcDbEntity
  8
0
 62
     3
100
AcDbCircle
 10
1502.105432723193
 20
176.4424235712476
 30
0.0
 40
0.2500000000001093
100
AcDbArc
 50
2.999990574366023
 51
90.0
  0
ARC
  5
1103
330
1F
100
AcDbEntity
  8
0
 62
     3
100
AcDbCircle
 10
1521.067207957915
 20
174.8549235712476
 30
0.0
 40
0.1250000000000136
100
AcDbArc
 50
2.500000000959691
 51
90.0
  0
ARC
  5
1104
330
1F
100
AcDbEntity
  8
0
 62
     3
100
AcDbCircle
 10
1465.568849092911
 20
174.8549235712476
 30
0.0
 40
0.1250000000001272
100
AcDbArc
 50
90.0
 51
177.4999999990436
  0
LINE
  5
1105
330
1F
100
AcDbEntity
  8
0
 62
     3
100
AcDbLine
 10
1524.25926342696
 20
167.9573393383732
 30
0.0
 11
1524.170160070957
 21
169.7190094463265
 31
0.0
  0
LINE
  5
1106
330
1F
100
AcDbEntity
  8
0
 62
     3
100
AcDbLine
 10
1524.866245464385
 20
168.5937890041357
 30
0.0
 11
1524.866211936774
 21
168.5943526871241
 31
0.0
  0
LINE
  5
1107
330
1F
100
AcDbEntity
  8
0
 62
     3
100
AcDbLine
 10
1512.857876495423
 20
174.9061858471221
 30
0.0
 11
1512.848960013092
 21
175.1103764589614
 31
0.0
  0
LINE
  5
1108
330
1F
100
AcDbEntity
  8
0
 62
     3
100
AcDbLine
 10
1511.287096665204
 20
175.1103764589614
 30
0.0
 11
1511.28055505544
 21
174.9605704288667
 31
0.0
  0
LINE
  5
1109
330
1F
100
AcDbEntity
  8
0
 62
     3
100
AcDbLine
 10
1475.355501995385
 20
174.9605704288667
 30
0.0
 11
1475.348960385621
 21
175.1103764589614
 31
0.0
  0
LINE
  5
110A
330
1F
100
AcDbEntity
  8
0
 62
     3
100
AcDbLine
 10
1473.787097037733
 20
175.1103764589614
 30
0.0
 11
1473.778180555404
 21
174.9061858471221
 31
0.0
  0
ARC
  5
110B
330
1F
100
AcDbEntity
  8
0
 62
     3
100
AcDbCircle
 10
1511.411977536463
 20
175.1049235712476
 30
0.0
 40
0.1250000000003805
100
AcDbArc
 50
90.0
 51
177.5000000017518
  0
ARC
  5
110C
330
1F
100
AcDbEntity
  8
0
 62
     3
100
AcDbCircle
 10
1512.724079514363
 20
175.1049235712476
 30
0.0
 40
0.1250000000003805
100
AcDbArc
 50
2.499999998244781
 51
90.0
  0
ARC
  5
110D
330
1F
100
AcDbEntity
  8
0
 62
     3
100
AcDbCircle
 10
1473.911977536463
 20
175.1049235712476
 30
0.0
 40
0.1250000000008348
100
AcDbArc
 50
90.0
 51
177.5000000017648
  0
ARC
  5
110E
330
1F
100
AcDbEntity
  8
0
 62
     3
100
AcDbCircle
 10
1475.224079514363
 20
175.1049235712476
 30
0.0
 40
0.125000000000849
100
AcDbArc
 50
2.499999998235121
 51
90.0
  0
LINE
  5
110F
330
1F
100
AcDbEntity
  8
0
 62
     3
100
AcDbLine
 10
1518.019350022972
 20
174.5383879359551
 30
0.0
 11
1515.186918676794
 21
174.6125575344747
 31
0.0
  0
LINE
  5
1110
330
1F
100
AcDbEntity
  8
0
 62
     3
100
AcDbLine
 10
1513.583415896595
 20
174.6545471440738
 30
0.0
 11
1513.098299280705
 21
174.6672503839915
 31
0.0
  0
LINE
  5
1111
330
1F
100
AcDbEntity
  8
0
 62
     3
100
AcDbLine
 10
1473.537757770123
 20
174.6672503839915
 30
0.0
 11
1473.05264115423
 21
174.6545471440738
 31
0.0
  0
LINE
  5
1112
330
1F
100
AcDbEntity
  8
0
 62
     3
100
AcDbLine
 10
1471.449138374031
 20
174.6125575344747
 30
0.0
 11
1468.616679088176
 21
174.5383870046324
 31
0.0
  0
LINE
  5
1113
330
1F
100
AcDbEntity
  8
0
 62
     3
100
AcDbLine
 10
1473.623584733308
 20
174.6857278238721
 30
0.0
 11
1473.623649925888
 21
174.6856831203884
 31
0.0
  0
LINE
  5
1114
330
1F
100
AcDbEntity
  8
0
 62
     3
100
AcDbLine
 10
1483.137966842354
 20
174.9186404239125
 30
0.0
 11
1477.875372172298
 21
174.7808344851917
 31
0.0
  0
LINE
  5
1115
330
1F
100
AcDbEntity
  8
0
 62
     3
100
AcDbLine
 10
1508.76068487853
 20
174.7808344851917
 30
0.0
 11
1503.498090208473
 21
174.9186404239125
 31
0.0
  0
LINE
  5
1116
330
1F
100
AcDbEntity
  8
0
 62
     7
100
AcDbLine
 10
1484.199040346742
 20
177.3924231718963
 30
0.0
 11
1486.199040208908
 21
177.3924231718963
 31
0.0
  0
LINE
  5
1117
330
1F
100
AcDbEntity
  8
0
 62
     7
100
AcDbLine
 10
1500.437016841919
 20
177.3924231718963
 30
0.0
 11
1502.437016704083
 21
177.3924231718963
 31
0.0
  0
LINE
  5
1118
330
1F
100
AcDbEntity
  8
0
 62
     7
100
AcDbLine
 10
1484.33654081166
 20
177.642423678536
 30
0.0
 11
1486.061540209653
 21
177.642423678536
 31
0.0
  0
LINE
  5
1119
330
1F
100
AcDbEntity
  8
0
 62
     7
100
AcDbLine
 10
1500.574516841175
 20
177.642423678536
 30
0.0
 11
1502.299516239167
 21
177.642423678536
 31
0.0
  0
LINE
  5
111A
330
1F
100
AcDbEntity
  8
0
 62
     7
100
AcDbLine
 10
1501.312016286853
 20
178.175205383796
 30
0.0
 11
1501.56201679349
 21
178.175205383796
 31
0.0
  0
SPLINE
  5
111B
330
1F
100
AcDbEntity
  8
0
 62
     7
100
AcDbSpline
210
0.0
220
0.0
230
1.0
 70
     8
 71
     3
 72
     9
 73
     5
 74
     0
 42
0.0000000001
 43
0.0000000001
 40
0.0
 40
0.0
 40
0.0
 40
0.0
 40
0.0719135934150989
 40
1.0
 40
1.0
 40
1.0
 40
1.0
 10
1502.144798413815
 20
178.175205383796
 30
0.0
 10
1502.143591000002
 20
178.1758654589595
 30
0.0
 10
1502.126801214447
 20
178.1850441848729
 30
0.0
 10
1502.108634159642
 20
178.1912963579945
 30
0.0
 10
1502.091773563028
 20
178.1970989148802
 30
0.0
  0
LINE
  5
111C
330
1F
100
AcDbEntity
  8
0
 62
     7
100
AcDbLine
 10
1500.782259517314
 20
178.1970989148802
 30
0.0
 11
1500.729234666527
 21
178.175205383796
 31
0.0
  0
ARC
  5
111D
330
1F
100
AcDbEntity
  8
0
 62
     7
100
AcDbCircle
 10
1501.437016685893
 20
175.9141369513268
 30
0.0
 40
2.374999420314412
100
AcDbArc
 50
73.99702210549128
 51
86.98303795309747
  0
ARC
  5
111E
330
1F
100
AcDbEntity
  8
0
 62
     7
100
AcDbCircle
 10
1501.437016685893
 20
175.9141369513268
 30
0.0
 40
2.374999420314404
100
AcDbArc
 50
93.01696204690252
 51
106.0029778945087
  0
LINE
  5
111F
330
1F
100
AcDbEntity
  8
0
 62
     7
100
AcDbLine
 10
1485.074040257335
 20
178.175205383796
 30
0.0
 11
1485.324040763976
 21
178.175205383796
 31
0.0
  0
SPLINE
  5
1120
330
1F
100
AcDbEntity
  8
0
 62
     7
100
AcDbSpline
210
0.0
220
0.0
230
1.0
 70
     8
 71
     3
 72
     9
 73
     5
 74
     0
 42
0.0000000001
 43
0.0000000001
 40
0.0
 40
0.0
 40
0.0
 40
0.0
 40
0.0719135934150989
 40
1.0
 40
1.0
 40
1.0
 40
1.0
 10
1485.9068223843
 20
178.175205383796
 30
0.0
 10
1485.905614970488
 20
178.1758654589595
 30
0.0
 10
1485.888825184932
 20
178.1850441848729
 30
0.0
 10
1485.870658130127
 20
178.1912963579945
 30
0.0
 10
1485.853797533515
 20
178.1970989148802
 30
0.0
  0
LINE
  5
1121
330
1F
100
AcDbEntity
  8
0
 62
     7
100
AcDbLine
 10
1484.544283487799
 20
178.1970989148802
 30
0.0
 11
1484.491258637014
 21
178.175205383796
 31
0.0
  0
ARC
  5
1122
330
1F
100
AcDbEntity
  8
0
 62
     7
100
AcDbCircle
 10
1485.199040364934
 20
175.9141369513268
 30
0.0
 40
2.374999420314404
100
AcDbArc
 50
93.01696204690252
 51
106.0029778945087
  0
ARC
  5
1123
330
1F
100
AcDbEntity
  8
0
 62
     7
100
AcDbCircle
 10
1485.199040364934
 20
175.9141369513268
 30
0.0
 40
2.374999420314404
100
AcDbArc
 50
73.99702210549128
 51
86.98303795309747
  0
LINE
  5
1124
330
1F
100
AcDbEntity
  8
0
 62
     3
100
AcDbLine
 10
1459.818027690949
 20
166.6424235635176
 30
0.0
 11
1526.818029359878
 21
166.6424235635176
 31
0.0
  0
LINE
  5
1125
330
1F
100
AcDbEntity
  8
0
 62
     3
100
AcDbLine
 10
1504.899557457269
 20
167.5021590389049
 30
0.0
 11
1504.915606939197
 21
167.501694891017
 31
0.0
  0
LINE
  5
1126
330
1F
100
AcDbEntity
  8
0
 62
     3
100
AcDbLine
 10
1495.476897816137
 20
169.5671624228095
 30
0.0
 11
1495.546678091365
 21
167.968930229891
 31
0.0
  0
LINE
  5
1127
330
1F
100
AcDbEntity
  8
0
 62
     3
100
AcDbLine
 10
1491.089378959464
 20
167.968930229891
 30
0.0
 11
1491.159159234688
 21
169.5671624228095
 31
0.0
  0
LINE
  5
1128
330
1F
100
AcDbEntity
  8
0
 62
     3
100
AcDbLine
 10
1493.478801242621
 20
171.4799236695951
 30
0.0
 11
1493.1572557791
 21
171.4799236695951
 31
0.0
  0
LINE
  5
1129
330
1F
100
AcDbEntity
  8
0
 62
     3
100
AcDbLine
 10
1499.123993107081
 20
169.713355386976
 30
0.0
 11
1499.211672470868
 21
167.979852082554
 31
0.0
  0
SPLINE
  5
112A
330
1F
100
AcDbEntity
  8
0
 62
     3
100
AcDbSpline
210
0.0
220
0.0
230
1.0
 70
     8
 71
     3
 72
     9
 73
     5
 74
     0
 42
0.0000000001
 43
0.0000000001
 40
0.0
 40
0.0
 40
0.0
 40
0.0
 40
0.4266981250629475
 40
1.0
 40
1.0
 40
1.0
 40
1.0
 10
1504.45559971124
 20
167.9719371212385
 30
0.0
 10
1504.455490183153
 20
167.9728320305851
 30
0.0
 10
1504.455233495627
 20
167.9749293197316
 30
0.0
 10
1504.450679131229
 20
167.978058182975
 30
0.0
 10
1504.448068105579
 20
167.9798519661388
 30
0.0
  0
LINE
  5
112B
330
1F
100
AcDbEntity
  8
0
 62
     3
100
AcDbLine
 10
1493.687450401217
 20
170.4706545177585
 30
0.0
 11
1493.729076824115
 21
169.5172526132053
 31
0.0
  0
LINE
  5
112C
330
1F
100
AcDbEntity
  8
0
 62
     3
100
AcDbLine
 10
1492.906955022795
 20
169.5166754260396
 30
0.0
 11
1492.948599024406
 21
170.4704798947757
 31
0.0
  0
LINE
  5
112D
330
1F
100
AcDbEntity
  8
0
 62
     3
100
AcDbLine
 10
1495.834972486796
 20
174.8145781647152
 30
0.0
 11
1497.289988920987
 21
174.5965825583523
 31
0.0
  0
LINE
  5
112E
330
1F
100
AcDbEntity
  8
0
 62
     3
100
AcDbLine
 10
1489.346068129838
 20
174.5965825583523
 30
0.0
 11
1490.8010843312
 21
174.8145781647152
 31
0.0
  0
LINE
  5
112F
330
1F
100
AcDbEntity
  8
0
 62
     3
100
AcDbLine
 10
1484.718657807412
 20
174.5320344533509
 30
0.0
 11
1487.746610549242
 21
174.763132837016
 31
0.0
  0
LINE
  5
1130
330
1F
100
AcDbEntity
  8
0
 62
     3
100
AcDbLine
 10
1498.889446501585
 20
174.763132837016
 30
0.0
 11
1501.917399243415
 21
174.5320344533509
 31
0.0
  0
LINE
  5
1131
330
1F
100
AcDbEntity
  8
0
 62
     3
100
AcDbLine
 10
1492.992375009616
 20
171.4731146108861
 30
0.0
 11
1493.12669447247
 21
174.5495358671731
 31
0.0
  0
LINE
  5
1132
330
1F
100
AcDbEntity
  8
0
 62
     3
100
AcDbLine
 10
1493.509362229111
 20
174.5495442490762
 30
0.0
 11
1493.643682038601
 21
171.4731145811262
 31
0.0
  0
LINE
  5
1133
330
1F
100
AcDbEntity
  8
0
 62
     3
100
AcDbLine
 10
1503.52445222527
 20
174.6537266488856
 30
0.0
 11
1506.588749364913
 21
174.4935605864711
 31
0.0
  0
LINE
  5
1134
330
1F
100
AcDbEntity
  8
0
 62
     3
100
AcDbLine
 10
1480.047304891946
 20
174.4935605864711
 30
0.0
 11
1483.111604825558
 21
174.6537275802082
 31
0.0
  0
LINE
  5
1135
330
1F
100
AcDbEntity
  8
0
 62
     3
100
AcDbLine
 10
1503.519307599366
 20
174.7715650316066
 30
0.0
 11
1510.187119022908
 21
174.500301499266
 31
0.0
  0
LINE
  5
1136
330
1F
100
AcDbEntity
  8
0
 62
     3
100
AcDbLine
 10
1476.448938027919
 20
174.500301499266
 30
0.0
 11
1483.116749451459
 21
174.771564100284
 31
0.0
  0
LINE
  5
1137
330
1F
100
AcDbEntity
  8
0
 62
     3
100
AcDbLine
 10
1466.621575654449
 20
167.5112040437495
 30
0.0
 11
1466.608885453046
 21
167.5274026537052
 31
0.0
  0
LINE
  5
1138
330
1F
100
AcDbEntity
  8
0
 62
     3
100
AcDbLine
 10
1504.1991674909
 20
174.8145781647152
 30
0.0
 11
1510.19190602094
 21
174.6099237542337
 31
0.0
  0
LINE
  5
1139
330
1F
100
AcDbEntity
  8
0
 62
     3
100
AcDbLine
 10
1511.799867973626
 20
174.5550111125892
 30
0.0
 11
1513.576421664061
 21
174.4943410347885
 31
0.0
  0
LINE
  5
113A
330
1F
100
AcDbEntity
  8
0
 62
     3
100
AcDbLine
 10
1473.059635386767
 20
174.4943410347885
 30
0.0
 11
1474.836189077199
 21
174.5550111125892
 31
0.0
  0
LINE
  5
113B
330
1F
100
AcDbEntity
  8
0
 62
     3
100
AcDbLine
 10
1476.444151029887
 20
174.6099237542337
 30
0.0
 11
1482.43689794183
 21
174.8145781647152
 31
0.0
  0
LINE
  5
113C
330
1F
100
AcDbEntity
  8
0
 62
     3
100
AcDbLine
 10
1466.730223746003
 20
168.4317267689592
 30
0.0
 11
1466.645756513775
 21
168.4424234743899
 31
0.0
  0
LINE
  5
113D
330
1F
100
AcDbEntity
  8
0
 62
     3
100
AcDbLine
 10
1519.990309850276
 20
168.4424234743899
 30
0.0
 11
1519.905969277919
 21
168.4316164072341
 31
0.0
  0
LINE
  5
113E
330
1F
100
AcDbEntity
  8
0
 62
     3
100
AcDbLine
 10
1466.602129639092
 20
168.4591048586851
 30
0.0
 11
1466.645756513775
 21
168.4424237072206
 31
0.0
  0
LINE
  5
113F
330
1F
100
AcDbEntity
  8
0
 62
     3
100
AcDbLine
 10
1498.878174276301
 20
174.8965803083295
 30
0.0
 11
1501.895875447393
 21
174.738850463528
 31
0.0
  0
LINE
  5
1140
330
1F
100
AcDbEntity
  8
0
 62
     3
100
AcDbLine
 10
1484.740181603432
 20
174.738850463528
 30
0.0
 11
1487.757882768497
 21
174.8965802912483
 31
0.0
  0
LINE
  5
1141
330
1F
100
AcDbEntity
  8
0
 62
     3
100
AcDbLine
 10
1490.801082701387
 20
174.8145306672639
 30
0.0
 11
1490.812441809999
 21
174.8153865527099
 31
0.0
  0
LINE
  5
1142
330
1F
100
AcDbEntity
  8
0
 62
     3
100
AcDbLine
 10
1495.834972486796
 20
174.8145781647152
 30
0.0
 11
1495.823614309505
 21
174.8153856213874
 31
0.0
  0
LINE
  5
1143
330
1F
100
AcDbEntity
  8
0
 62
     3
100
AcDbLine
 10
1511.796701476874
 20
174.6275061931199
 30
0.0
 11
1513.579884321393
 21
174.5736235942431
 31
0.0
  0
LINE
  5
1144
330
1F
100
AcDbEntity
  8
0
 62
     3
100
AcDbLine
 10
1515.190742687287
 20
174.5249489512032
 30
0.0
 11
1516.229497046173
 21
174.4935605864711
 31
0.0
  0
LINE
  5
1145
330
1F
100
AcDbEntity
  8
0
 62
     3
100
AcDbLine
 10
1470.406560004652
 20
174.4935605864711
 30
0.0
 11
1471.44531436354
 21
174.5249489512032
 31
0.0
  0
LINE
  5
1146
330
1F
100
AcDbEntity
  8
0
 62
     3
100
AcDbLine
 10
1473.056172729433
 20
174.5736235942431
 30
0.0
 11
1474.839355573953
 21
174.6275061931199
 31
0.0
  0
SPLINE
  5
1147
330
1F
100
AcDbEntity
  8
0
 62
     3
100
AcDbSpline
210
0.0
220
0.0
230
1.0
 70
     8
 71
     3
 72
     9
 73
     5
 74
     0
 42
0.0000000001
 43
0.0000000001
 40
0.0
 40
0.0
 40
0.0
 40
0.0
 40
0.3160074156818241
 40
1.0
 40
1.0
 40
1.0
 40
1.0
 10
1518.35662476808
 20
174.5860288109368
 30
0.0
 10
1518.355723170692
 20
174.5660785015281
 30
0.0
 10
1518.352870081359
 20
174.5029460925438
 30
0.0
 10
1518.350821364073
 20
174.4244388981081
 30
0.0
 10
1518.349420056643
 20
174.3707405592984
 30
0.0
  0
SPLINE
  5
1148
330
1F
100
AcDbEntity
  8
0
 62
     3
100
AcDbSpline
210
0.0
220
0.0
230
1.0
 70
     8
 71
     3
 72
    10
 73
     6
 74
     0
 42
0.0000000001
 43
0.0000000001
 40
0.0
 40
0.0
 40
0.0
 40
0.0
 40
0.52701775221182
 40
0.9641316593381404
 40
0.9999999999999998
 40
0.9999999999999998
 40
0.9999999999999998
 40
0.9999999999999998
 10
1468.28663885683
 20
174.370739627976
 30
0.0
 10
1468.285159561622
 20
174.4121684795517
 30
0.0
 10
1468.282453323863
 20
174.487958843817
 30
0.0
 10
1468.28184197755
 20
174.5672681741535
 30
0.0
 10
1468.279757961022
 20
174.5954883709737
 30
0.0
 10
1468.27959992081
 20
174.5976284336036
 30
0.0
  0
LINE
  5
1149
330
1F
100
AcDbEntity
  8
0
 62
     3
100
AcDbLine
 10
1468.143447678491
 20
174.9799235712474
 30
0.0
 11
1465.568849092911
 21
174.9799235712478
 31
0.0
  0
LINE
  5
114A
330
1F
100
AcDbEntity
  8
0
 62
     3
100
AcDbLine
 10
1482.43689794183
 20
174.8145306672639
 30
0.0
 11
1482.508377880754
 21
174.81523102184
 31
0.0
  0
LINE
  5
114B
330
1F
100
AcDbEntity
  8
0
 62
     3
100
AcDbLine
 10
1506.638893634977
 20
174.8145781647152
 30
0.0
 11
1508.732449040713
 21
174.756262470383
 31
0.0
  0
LINE
  5
114C
330
1F
100
AcDbEntity
  8
0
 62
     3
100
AcDbLine
 10
1511.794805304113
 20
174.6709617044516
 30
0.0
 11
1513.58195930809
 21
174.6211806501931
 31
0.0
  0
LINE
  5
114D
330
1F
100
AcDbEntity
  8
0
 62
     3
100
AcDbLine
 10
1515.188494474592
 20
174.576430600483
 30
0.0
 11
1518.19718793124
 21
174.4926246072835
 31
0.0
  0
LINE
  5
114E
330
1F
100
AcDbEntity
  8
0
 62
     3
100
AcDbLine
 10
1468.438869119585
 20
174.4926246072835
 30
0.0
 11
1471.447562576235
 21
174.576430600483
 31
0.0
  0
LINE
  5
114F
330
1F
100
AcDbEntity
  8
0
 62
     3
100
AcDbLine
 10
1473.054097742737
 20
174.6211806501931
 30
0.0
 11
1474.841251746716
 21
174.6709617044516
 31
0.0
  0
LINE
  5
1150
330
1F
100
AcDbEntity
  8
0
 62
     3
100
AcDbLine
 10
1477.870417536201
 20
174.755338598389
 30
0.0
 11
1479.997114055754
 21
174.8145772333926
 31
0.0
  0
LINE
  5
1151
330
1F
100
AcDbEntity
  8
0
 62
     3
100
AcDbLine
 10
1477.950180658104
 20
174.7215055118984
 30
0.0
 11
1483.125152775051
 21
174.8778773661441
 31
0.0
  0
LINE
  5
1152
330
1F
100
AcDbEntity
  8
0
 62
     3
100
AcDbLine
 10
1503.511000202002
 20
174.8778745721763
 30
0.0
 11
1508.685876392724
 21
174.7215055118984
 31
0.0
  0
LINE
  5
1153
330
1F
100
AcDbEntity
  8
0
 62
     3
100
AcDbLine
 10
1462.467511893215
 20
169.7132988091296
 30
0.0
 11
1462.379529849591
 21
167.9737796265371
 31
0.0
  0
LINE
  5
1154
330
1F
100
AcDbEntity
  8
0
 62
     3
100
AcDbLine
 10
1479.997114987076
 20
174.8145297359415
 30
0.0
 11
1480.084842779637
 21
174.81523102184
 31
0.0
  0
LINE
  5
1155
330
1F
100
AcDbEntity
  8
0
 62
     3
100
AcDbLine
 10
1507.267330550552
 20
174.8145781647152
 30
0.0
 11
1508.736182712914
 21
174.7755296718066
 31
0.0
  0
LINE
  5
1156
330
1F
100
AcDbEntity
  8
0
 62
     3
100
AcDbLine
 10
1511.793788299859
 20
174.694244768817
 30
0.0
 11
1513.58307316989
 21
174.6466774683183
 31
0.0
  0
LINE
  5
1157
330
1F
100
AcDbEntity
  8
0
 62
     3
100
AcDbLine
 10
1515.187289343179
 20
174.6040303449816
 30
0.0
 11
1518.371796012821
 21
174.5193721916266
 31
0.0
  0
LINE
  5
1158
330
1F
100
AcDbEntity
  8
0
 62
     3
100
AcDbLine
 10
1468.352777660789
 20
174.5217256437725
 30
0.0
 11
1471.448767707648
 21
174.6040303449816
 31
0.0
  0
LINE
  5
1159
330
1F
100
AcDbEntity
  8
0
 62
     3
100
AcDbLine
 10
1473.052983880939
 20
174.6466774683183
 30
0.0
 11
1474.842268750966
 21
174.694244768817
 31
0.0
  0
LINE
  5
115A
330
1F
100
AcDbEntity
  8
0
 62
     3
100
AcDbLine
 10
1477.872185186446
 20
174.7747939269727
 30
0.0
 11
1479.368714393081
 21
174.8145781647152
 31
0.0
  0
LINE
  5
115B
330
1F
100
AcDbEntity
  8
0
 62
     3
100
AcDbLine
 10
1479.368716255725
 20
174.8145306672639
 30
0.0
 11
1479.460607991517
 21
174.81523102184
 31
0.0
  0
LINE
  5
115C
330
1F
100
AcDbEntity
  8
0
 62
     3
100
AcDbLine
 10
1460.839077607692
 20
167.9620527619234
 30
0.0
 11
1460.982231188262
 21
171.240828451232
 31
0.0
  0
ARC
  5
115D
330
1F
100
AcDbEntity
  8
0
 62
     3
100
AcDbCircle
 10
1461.231993246503
 20
171.2299236695951
 30
0.0
 40
0.25
100
AcDbArc
 50
90.0
 51
177.5000149580423
  0
LINE
  5
115E
330
1F
100
AcDbEntity
  8
0
 62
     3
100
AcDbLine
 10
1461.653821802241
 20
171.240828730519
 30
0.0
 11
1461.796130762399
 21
167.9814817806444
 31
0.0
  0
ARC
  5
115F
330
1F
100
AcDbEntity
  8
0
 62
     3
100
AcDbCircle
 10
1461.404059756192
 20
171.2299236695951
 30
0.0
 40
0.25
100
AcDbArc
 50
2.500049110831754
 51
90.0
  0
LINE
  5
1160
330
1F
100
AcDbEntity
  8
0
 62
     3
100
AcDbLine
 10
1525.653820045218
 20
171.240828892064
 30
0.0
 11
1525.796979443135
 21
167.9620527619234
 31
0.0
  0
ARC
  5
1161
330
1F
100
AcDbEntity
  8
0
 62
     3
100
AcDbCircle
 10
1525.404058006223
 20
171.2299236695951
 30
0.0
 40
0.25
100
AcDbArc
 50
2.500086169512115
 51
90.0
  0
LINE
  5
1162
330
1F
100
AcDbEntity
  8
0
 62
     3
100
AcDbLine
 10
1524.839926288428
 20
167.981479103092
 30
0.0
 11
1524.982236406604
 21
171.2408288098818
 31
0.0
  0
ARC
  5
1163
330
1F
100
AcDbEntity
  8
0
 62
     3
100
AcDbCircle
 10
1525.231998449189
 20
171.2299236695951
 30
0.0
 40
0.25
100
AcDbArc
 50
90.0
 51
177.4999326832043
  0
LINE
  5
1164
330
1F
100
AcDbEntity
  8
0
 62
     3
100
AcDbLine
 10
1461.404059756192
 20
171.4799236695951
 30
0.0
 11
1461.231993246503
 21
171.4799236695951
 31
0.0
  0
LINE
  5
1165
330
1F
100
AcDbEntity
  8
0
 62
     3
100
AcDbLine
 10
1525.231998449189
 20
171.4799236695951
 30
0.0
 11
1525.404058006223
 21
171.4799236695951
 31
0.0
  0
LINE
  5
1166
330
1F
100
AcDbEntity
  8
0
 62
     3
100
AcDbLine
 10
1518.124181554616
 20
174.5259547795838
 30
0.0
 11
1518.018077836335
 21
174.5383776914066
 31
0.0
  0
LINE
  5
1167
330
1F
100
AcDbEntity
  8
0
 62
     3
100
AcDbLine
 10
1468.617971763911
 20
174.5383786227292
 30
0.0
 11
1468.511858732403
 21
174.5259547795838
 31
0.0
  0
LINE
  5
1168
330
1F
100
AcDbEntity
  8
0
 62
     3
100
AcDbLine
 10
1518.018085286917
 20
174.5383786227292
 30
0.0
 11
1518.124198318424
 21
174.5259547795838
 31
0.0
  0
LINE
  5
1169
330
1F
100
AcDbEntity
  8
0
 62
     3
100
AcDbLine
 10
1518.018085286917
 20
174.5383786227292
 30
0.0
 11
1518.018081561628
 21
174.5383776914066
 31
0.0
  0
LINE
  5
116A
330
1F
100
AcDbEntity
  8
0
 62
     3
100
AcDbLine
 10
1468.617973626556
 20
174.5384177382773
 30
0.0
 11
1468.617969901264
 21
174.5384177382773
 31
0.0
  0
LINE
  5
116B
330
1F
100
AcDbEntity
  8
0
 62
     3
100
AcDbLine
 10
1499.42974553833
 20
178.2049238871521
 30
0.0
 11
1498.568028525414
 21
230.4003543838592
 31
0.0
  0
LINE
  5
116C
330
1F
100
AcDbEntity
  8
0
 62
     3
100
AcDbLine
 10
1488.068028525414
 20
230.4003543838592
 30
0.0
 11
1487.206311512496
 21
178.2049238871521
 31
0.0
  0
LINE
  5
116D
330
1F
100
AcDbEntity
  8
0
 62
     3
100
AcDbLine
 10
1498.568028525414
 20
230.4003543838592
 30
0.0
 11
1488.068028525414
 21
230.4003543838592
 31
0.0
  0
LINE
  5
116E
330
1F
100
AcDbEntity
  8
0
 62
     7
100
AcDbLine
 10
1489.893028525414
 20
238.2753543838592
 30
0.0
 11
1489.893028525414
 21
238.5253543838593
 31
0.0
  0
ARC
  5
116F
330
1F
100
AcDbEntity
  8
0
 62
     7
100
AcDbCircle
 10
1491.518028525415
 20
238.5253543838593
 30
0.0
 40
1.625
100
AcDbArc
 50
90.0
 51
180.0
  0
LINE
  5
1170
330
1F
100
AcDbEntity
  8
0
 62
     7
100
AcDbLine
 10
1496.743028525414
 20
238.2753543838592
 30
0.0
 11
1496.743028525414
 21
238.5253543838593
 31
0.0
  0
ARC
  5
1171
330
1F
100
AcDbEntity
  8
0
 62
     7
100
AcDbCircle
 10
1495.118028525414
 20
238.5253543838593
 30
0.0
 40
1.625
100
AcDbArc
 50
0.0
 51
90.0
  0
LINE
  5
1172
330
1F
100
AcDbEntity
  8
0
 62
     7
100
AcDbLine
 10
1491.568028525414
 20
240.1503543838594
 30
0.0
 11
1491.568028525414
 21
240.6503543838592
 31
0.0
  0
LINE
  5
1173
330
1F
100
AcDbEntity
  8
0
 62
     7
100
AcDbLine
 10
1495.068028525414
 20
240.1503543838594
 30
0.0
 11
1495.068028525414
 21
240.6503543838592
 31
0.0
  0
LINE
  5
1174
330
1F
100
AcDbEntity
  8
0
 62
     7
100
AcDbLine
 10
1491.518028525415
 20
240.1503543838594
 30
0.0
 11
1495.118028525414
 21
240.1503543838594
 31
0.0
  0
ARC
  5
1175
330
1F
100
AcDbEntity
  8
0
 62
     7
100
AcDbCircle
 10
1489.07134451254
 20
238.0253559615811
 30
0.0
 40
0.2499984222373809
100
AcDbArc
 50
89.98956724382594
 51
148.2463808528168
  0
ARC
  5
1176
330
1F
100
AcDbEntity
  8
0
 62
     7
100
AcDbCircle
 10
1497.537617834101
 20
238.0253543911944
 30
0.0
 40
0.2499999926603837
100
AcDbArc
 50
331.2469085811061
 51
90.00159237560403
  0
LINE
  5
1177
330
1F
100
AcDbEntity
  8
0
 62
     7
100
AcDbLine
 10
1498.193028525414
 20
230.4003543838592
 30
0.0
 11
1498.193028525414
 21
231.6753543838595
 31
0.0
  0
LINE
  5
1178
330
1F
100
AcDbEntity
  8
0
 62
     7
100
AcDbLine
 10
1488.443028525414
 20
232.5253543838595
 30
0.0
 11
1488.443028525414
 21
230.4003543838592
 31
0.0
  0
ARC
  5
1179
330
1F
100
AcDbEntity
  8
0
 62
     7
100
AcDbCircle
 10
1493.318028525411
 20
237.837854383861
 30
0.0
 40
3.312499999998363
100
AcDbArc
 50
58.10920819811147
 51
121.8907918018271
  0
LINE
  5
117A
330
1F
100
AcDbEntity
  8
0
 62
     7
100
AcDbLine
 10
1497.993236852282
 20
233.078423399261
 30
0.0
 11
1497.990248782052
 21
233.076606058674
 31
0.0
  0
LINE
  5
117B
330
1F
100
AcDbEntity
  8
0
 62
     7
100
AcDbLine
 10
1495.068028525414
 20
240.6503543838592
 30
0.0
 11
1491.568028525414
 21
240.6503543838592
 31
0.0
  0
ARC
  5
117C
330
1F
100
AcDbEntity
  8
0
 62
     7
100
AcDbCircle
 10
1492.845736287891
 20
346.4654075103423
 30
0.0
 40
108.6627869056407
100
AcDbArc
 50
270.5214683062554
 51
272.5844760477928
  0
ARC
  5
117D
330
1F
100
AcDbEntity
  8
0
 62
     7
100
AcDbCircle
 10
1497.880528525414
 20
231.6753543838595
 30
0.0
 40
0.312500000000003
100
AcDbArc
 50
0.0
 51
60.93108983891654
  0
LINE
  5
117E
330
1F
100
AcDbEntity
  8
0
100
AcDbLine
 10
1489.081949557881
 20
238.2753543838592
 30
0.0
 11
1497.537610886053
 21
238.275354383758
 31
0.0
  0
ARC
  5
117F
330
1F
100
AcDbEntity
  8
0
100
AcDbCircle
 10
1499.18985087388
 20
115.556883708743
 30
0.0
 40
122.9005564360971
100
AcDbArc
 50
93.38047452099223
 51
94.1539606521654
  0
ARC
  5
1180
330
1F
100
AcDbEntity
  8
0
100
AcDbCircle
 10
1490.704647768624
 20
228.3786448221089
 30
0.0
 40
9.764857691669719
100
AcDbArc
 50
92.44938617539524
 51
102.158436009486
  0
ARC
  5
1181
330
1F
100
AcDbEntity
  8
0
100
AcDbCircle
 10
1488.611902614516
 20
237.359122005954
 30
0.0
 40
0.0106448630999887
100
AcDbArc
 50
137.4852257539299
 51
209.6003939038157
  0
ARC
  5
1182
330
1F
100
AcDbEntity
  8
0
100
AcDbCircle
 10
1491.752228994795
 20
220.6008709250933
 30
0.0
 40
17.05846202280157
100
AcDbArc
 50
91.93416036071317
 51
100.6350122993709
  0
ARC
  5
1183
330
1F
100
AcDbEntity
  8
0
100
AcDbCircle
 10
1520.671256975188
 20
-237.6179375264397
 30
0.0
 40
476.1818845455248
100
AcDbArc
 50
93.23077517670563
 51
93.55118138652919
  0
ARC
  5
1184
330
1F
100
AcDbEntity
  8
0
100
AcDbCircle
 10
1492.055713659221
 20
277.9445326546362
 30
0.0
 40
41.3388379723954
100
AcDbArc
 50
271.8275592803443
 51
278.3160470687511
  0
ARC
  5
1185
330
1F
100
AcDbEntity
  8
0
100
AcDbCircle
 10
1495.030584615849
 20
189.2033636125042
 30
0.0
 40
47.45228107290706
100
AcDbArc
 50
92.00054600333999
 51
97.73006414149838
  0
ARC
  5
1186
330
1F
100
AcDbEntity
  8
0
100
AcDbCircle
 10
1491.614663106308
 20
283.3771613398633
 30
0.0
 40
47.33184821997478
100
AcDbArc
 50
271.9945972018848
 51
277.7389145480001
  0
ARC
  5
1187
330
1F
100
AcDbEntity
  8
0
100
AcDbCircle
 10
1494.0129305056
 20
204.347265762316
 30
0.0
 40
31.73560919255868
100
AcDbArc
 50
91.35575499488053
 51
99.73230602748959
  0
ARC
  5
1188
330
1F
100
AcDbEntity
  8
0
100
AcDbCircle
 10
1492.626965484738
 20
266.6228582799518
 30
0.0
 40
31.704941789048
100
AcDbArc
 50
271.3501569834636
 51
279.7350821538206
  0
ARC
  5
1189
330
1F
100
AcDbEntity
  8
0
100
AcDbCircle
 10
1491.613641737231
 20
281.6879323720414
 30
0.0
 40
47.34264793158489
100
AcDbArc
 50
271.9953973348149
 51
277.7384152552016
  0
ARC
  5
118A
330
1F
100
AcDbEntity
  8
0
100
AcDbCircle
 10
1495.022883678371
 20
187.5965858317582
 30
0.0
 40
47.35884571091733
100
AcDbArc
 50
91.99524311033092
 51
97.73607362035001
  0
ARC
  5
118B
330
1F
100
AcDbEntity
  8
0
100
AcDbCircle
 10
1494.014101280841
 20
202.635124301701
 30
0.0
 40
31.74777548537253
100
AcDbArc
 50
91.35732132213869
 51
99.73068795370195
  0
ARC
  5
118C
330
1F
100
AcDbEntity
  8
0
100
AcDbCircle
 10
1492.629693710359
 20
264.8984904236885
 30
0.0
 40
31.68051888224822
100
AcDbArc
 50
271.3461356902818
 51
279.7377898962898
  0
ARC
  5
118D
330
1F
100
AcDbEntity
  8
0
100
AcDbCircle
 10
1495.023142653801
 20
185.896148037873
 30
0.0
 40
47.35929065753381
100
AcDbArc
 50
91.99562273565044
 51
97.73638160312442
  0
ARC
  5
118E
330
1F
100
AcDbEntity
  8
0
100
AcDbCircle
 10
1494.13181361249
 20
257.0860944734585
 30
0.0
 40
24.31754625568491
100
AcDbArc
 50
271.9303858267924
 51
279.1296353588263
  0
ARC
  5
118F
330
1F
100
AcDbEntity
  8
0
100
AcDbCircle
 10
1503.598809993399
 20
126.6678039136747
 30
0.0
 40
106.4663420379869
100
AcDbArc
 50
94.65905026068698
 51
96.45796795879242
  0
ARC
  5
1190
330
1F
100
AcDbEntity
  8
0
100
AcDbCircle
 10
1495.514803608532
 20
198.8138325188831
 30
0.0
 40
33.86896235987157
100
AcDbArc
 50
96.59645620299185
 51
99.38229673900671
  0
ARC
  5
1191
330
1F
100
AcDbEntity
  8
0
100
AcDbCircle
 10
1491.722885003151
 20
221.8987937770788
 30
0.0
 40
10.47337539058429
100
AcDbArc
 50
99.59626971803269
 51
104.1747147872557
  0
ARC
  5
1192
330
1F
100
AcDbEntity
  8
0
100
AcDbCircle
 10
1489.283326557869
 20
230.9616707078668
 30
0.0
 40
1.098772299732762
100
AcDbArc
 50
96.54053417857902
 51
139.7463826944195
  0
ARC
  5
1193
330
1F
100
AcDbEntity
  8
0
100
AcDbCircle
 10
1492.203143125697
 20
302.136988447118
 30
0.0
 40
70.56189011549951
100
AcDbArc
 50
266.945365433537
 51
272.2317693562343
  0
ARC
  5
1194
330
1F
100
AcDbEntity
  8
0
100
AcDbCircle
 10
1497.888260726232
 20
140.3371850296794
 30
0.0
 40
91.3386778116712
100
AcDbArc
 50
89.80882205166581
 51
91.84285807812743
  0
ARC
  5
1195
330
1F
100
AcDbEntity
  8
0
100
AcDbCircle
 10
1494.40512853876
 20
251.888755128059
 30
0.0
 40
20.2674852251512
100
AcDbArc
 50
271.5432282767678
 51
280.3096553934963
  0
ARC
  5
1196
330
1F
100
AcDbEntity
  8
0
100
AcDbCircle
 10
1498.3421154582
 20
232.518989180094
 30
0.0
 40
0.6491663492587235
100
AcDbArc
 50
120.9098274969933
 51
241.5000097581764
  0
ARC
  5
1197
330
1F
100
AcDbEntity
  8
0
100
AcDbCircle
 10
1497.857146101491
 20
233.375733544237
 30
0.0
 40
0.3358826455136012
100
AcDbArc
 50
296.8111190221001
 51
63.38226308570518
  0
ARC
  5
1198
330
1F
100
AcDbEntity
  8
0
100
AcDbCircle
 10
1498.32994378827
 20
234.2253575621738
 30
0.0
 40
0.6369128505294889
100
AcDbArc
 50
120.4259492135368
 51
239.5988728284703
  0
ARC
  5
1199
330
1F
100
AcDbEntity
  8
0
100
AcDbCircle
 10
1497.856539984036
 20
235.0753646879239
 30
0.0
 40
0.3364885348878187
100
AcDbArc
 50
296.7314775414711
 51
63.33429594105297
  0
ARC
  5
119A
330
1F
100
AcDbEntity
  8
0
100
AcDbCircle
 10
1498.330394518299
 20
235.9253545411245
 30
0.0
 40
0.6371332563272497
100
AcDbArc
 50
120.4119828571825
 51
239.5894678089157
  0
ARC
  5
119B
330
1F
100
AcDbEntity
  8
0
100
AcDbCircle
 10
1497.856536017341
 20
236.7753654836329
 30
0.0
 40
0.3364925049647438
100
AcDbArc
 50
296.7267176390411
 51
63.34448857378955
  0
ARC
  5
119C
330
1F
100
AcDbEntity
  8
0
100
AcDbCircle
 10
1498.330037306988
 20
237.6260615549747
 30
0.0
 40
0.6375491170831844
100
AcDbArc
 50
154.0449177139116
 51
239.6095546002683
  0
ARC
  5
119D
330
1F
100
AcDbEntity
  8
0
100
AcDbCircle
 10
1488.327819630899
 20
238.4562318179724
 30
0.0
 40
0.6095002088730869
100
AcDbArc
 50
299.5669529818125
 51
330.5887952653423
  0
ARC
  5
119E
330
1F
100
AcDbEntity
  8
0
100
AcDbCircle
 10
1488.779542927272
 20
237.625349179166
 30
0.0
 40
0.3365143662903126
100
AcDbArc
 50
116.6670867296943
 51
243.3672381703527
  0
ARC
  5
119F
330
1F
100
AcDbEntity
  8
0
100
AcDbCircle
 10
1488.30611140032
 20
236.775357790275
 30
0.0
 40
0.6369143868916262
100
AcDbArc
 50
300.403144662917
 51
59.57058892678388
  0
ARC
  5
11A0
330
1F
100
AcDbEntity
  8
0
100
AcDbCircle
 10
1488.779539389711
 20
235.9253471208778
 30
0.0
 40
0.3365108643203965
100
AcDbArc
 50
116.6803579515194
 51
243.367328580995
  0
ARC
  5
11A1
330
1F
100
AcDbEntity
  8
0
100
AcDbCircle
 10
1488.305678162936
 20
235.0753324453917
 30
0.0
 40
0.6371176828471107
100
AcDbArc
 50
300.4627786048274
 51
59.53859794497009
  0
ARC
  5
11A2
330
1F
100
AcDbEntity
  8
0
100
AcDbCircle
 10
1488.779536801447
 20
234.225345657944
 30
0.0
 40
0.3365082761358172
100
AcDbArc
 50
116.6899508620096
 51
243.3671525580884
  0
ARC
  5
11A3
330
1F
100
AcDbEntity
  8
0
100
AcDbCircle
 10
1488.305654725794
 20
233.3753506821053
 30
0.0
 40
0.6371406813740908
100
AcDbArc
 50
300.4442355496668
 51
59.58682436311054
  0
ARC
  5
11A4
330
1F
100
AcDbEntity
  8
0
100
AcDbCircle
 10
1488.790637211564
 20
232.5184997994075
 30
0.0
 40
0.3476760900914265
100
AcDbArc
 50
117.8291092126522
 51
178.8717425753822
  0
LINE
  5
11A5
330
1F
100
AcDbEntity
  8
0
100
AcDbLine
 10
1494.486352050239
 20
212.0470995016122
 30
0.0
 11
1494.695162493575
 21
178.2049238871521
 31
0.0
  0
LINE
  5
11A6
330
1F
100
AcDbEntity
  8
0
100
AcDbLine
 10
1497.685474641442
 20
212.0470995016145
 30
0.0
 11
1498.052211402434
 21
178.2049238871521
 31
0.0
  0
ARC
  5
11A7
330
1F
100
AcDbEntity
  8
0
100
AcDbCircle
 10
1557.485178646
 20
212.725926143026
 30
0.0
 40
63.002483745102
100
AcDbArc
 50
176.7909917782791
 51
180.6173511240598
  0
ARC
  5
11A8
330
1F
100
AcDbEntity
  8
0
100
AcDbCircle
 10
1428.684967333794
 20
211.52767600776
 30
0.0
 40
69.00246234359156
100
AcDbArc
 50
0.4313042468242812
 51
3.926475818763528
  0
LINE
  5
11A9
330
1F
100
AcDbEntity
  8
0
100
AcDbLine
 10
1492.149705000588
 20
212.0470995016122
 30
0.0
 11
1491.94089455725
 21
178.2049238871521
 31
0.0
  0
LINE
  5
11AA
330
1F
100
AcDbEntity
  8
0
100
AcDbLine
 10
1488.950582409386
 20
212.0470995016126
 30
0.0
 11
1488.583845648393
 21
178.2049238871521
 31
0.0
  0
ARC
  5
11AB
330
1F
100
AcDbEntity
  8
0
100
AcDbCircle
 10
1557.951089704626
 20
211.527676008245
 30
0.0
 40
69.00246233117911
100
AcDbArc
 50
176.0735241809322
 51
179.5686957535014
  0
ARC
  5
11AC
330
1F
100
AcDbEntity
  8
0
100
AcDbCircle
 10
1429.150878393071
 20
212.7259261427465
 30
0.0
 40
63.00248375685352
100
AcDbArc
 50
359.3826488763083
 51
3.209008221371788
  0
ARC
  5
11AD
330
1F
100
AcDbEntity
  8
0
100
AcDbCircle
 10
1495.964438497246
 20
229.0519615604944
 30
0.0
 40
0.0982570811020871
100
AcDbArc
 50
38.95980666435054
 51
141.040193335484
  0
ARC
  5
11AE
330
1F
100
AcDbEntity
  8
0
100
AcDbCircle
 10
1495.40780162889
 20
228.5949562594733
 30
0.0
 40
0.8184619107224976
100
AcDbArc
 50
17.12286866637263
 51
39.33517958087579
  0
ARC
  5
11AF
330
1F
100
AcDbEntity
  8
0
100
AcDbCircle
 10
1496.514229818267
 20
228.6093208126735
 30
0.0
 40
0.8040906678330209
100
AcDbArc
 50
141.1473097789265
 51
163.63116894173
  0
ARC
  5
11B0
330
1F
100
AcDbEntity
  8
0
100
AcDbCircle
 10
1302.473103275783
 20
204.4721046446511
 30
0.0
 40
195.4077934824885
100
AcDbArc
 50
3.456302714128772
 51
6.468331598834705
  0
ARC
  5
11B1
330
1F
100
AcDbEntity
  8
0
100
AcDbCircle
 10
1689.149264797797
 20
207.1969250047787
 30
0.0
 40
194.7784085170526
100
AcDbArc
 50
174.3167577138511
 51
177.3352008230888
  0
ARC
  5
11B2
330
1F
100
AcDbEntity
  8
0
100
AcDbCircle
 10
1481.902697929896
 20
224.9010370705361
 30
0.0
 40
14.81924317192255
100
AcDbArc
 50
6.138068835380772
 51
15.3982015080057
  0
ARC
  5
11B3
330
1F
100
AcDbEntity
  8
0
100
AcDbCircle
 10
1509.999487339824
 20
225.1102017876518
 30
0.0
 40
14.73554024370328
100
AcDbArc
 50
165.3543935098176
 51
174.6443591841086
  0
ARC
  5
11B4
330
1F
100
AcDbEntity
  8
0
100
AcDbCircle
 10
1490.67161855358
 20
229.0519615604944
 30
0.0
 40
0.0982570811020871
100
AcDbArc
 50
38.95980666451586
 51
141.0401933356494
  0
ARC
  5
11B5
330
1F
100
AcDbEntity
  8
0
100
AcDbCircle
 10
1491.228255421936
 20
228.5949562594733
 30
0.0
 40
0.8184619107224976
100
AcDbArc
 50
140.6648204191242
 51
162.8771313336121
  0
ARC
  5
11B6
330
1F
100
AcDbEntity
  8
0
100
AcDbCircle
 10
1490.121827232559
 20
228.6093208126735
 30
0.0
 40
0.8040906678330209
100
AcDbArc
 50
16.36883105825473
 51
38.85269022103189
  0
ARC
  5
11B7
330
1F
100
AcDbEntity
  8
0
100
AcDbCircle
 10
1684.162953775046
 20
204.4721046446511
 30
0.0
 40
195.4077934824885
100
AcDbArc
 50
173.5316684011684
 51
176.5436972858712
  0
ARC
  5
11B8
330
1F
100
AcDbEntity
  8
0
100
AcDbCircle
 10
1297.48679225303
 20
207.1969250047787
 30
0.0
 40
194.7784085170526
100
AcDbArc
 50
2.664799176911178
 51
5.683242286145674
  0
ARC
  5
11B9
330
1F
100
AcDbEntity
  8
0
100
AcDbCircle
 10
1504.73335912093
 20
224.9010370705361
 30
0.0
 40
14.81924317192255
100
AcDbArc
 50
164.6017984919943
 51
173.8619311646191
  0
ARC
  5
11BA
330
1F
100
AcDbEntity
  8
0
100
AcDbCircle
 10
1476.636569711002
 20
225.1102017876518
 30
0.0
 40
14.73554024370328
100
AcDbArc
 50
5.355640815888122
 51
14.64560649018238
  0
LINE
  5
11BB
330
1F
100
AcDbEntity
  8
0
 62
     3
100
AcDbLine
 10
1485.918028523179
 20
178.2049238871521
 30
0.0
 11
1500.718028527648
 21
178.2049238871521
 31
0.0
  0
LINE
  5
11BC
330
1F
100
AcDbEntity
  8
0
 62
     3
100
AcDbLine
 10
1503.943028637172
 20
177.1924235116428
 30
0.0
 11
1482.693028525414
 21
177.1924235712474
 31
0.0
  0
LINE
  5
11BD
330
1F
100
AcDbEntity
  8
0
 62
     3
100
AcDbLine
 10
1482.694972083867
 20
176.6924234296866
 30
0.0
 11
1503.943028525414
 21
176.6924235712474
 31
0.0
  0
LINE
  5
11BE
330
1F
100
AcDbEntity
  8
0
 62
     7
100
AcDbLine
 10
1485.324040364934
 20
178.2858446159628
 30
0.0
 11
1485.324040763976
 21
178.175205383796
 31
0.0
  0
LINE
  5
11BF
330
1F
100
AcDbEntity
  8
0
 62
     7
100
AcDbLine
 10
1485.074040364932
 20
178.2858446159628
 30
0.0
 11
1485.074040257335
 21
178.175205383796
 31
0.0
  0
LINE
  5
11C0
330
1F
100
AcDbEntity
  8
0
 62
     7
100
AcDbLine
 10
1485.199040510655
 20
177.642423678536
 30
0.0
 11
1485.074040257335
 21
177.3924231718963
 31
0.0
  0
LINE
  5
11C1
330
1F
100
AcDbEntity
  8
0
 62
     7
100
AcDbLine
 10
1485.324040763976
 20
177.642423678536
 30
0.0
 11
1485.199040510655
 21
177.3924231718963
 31
0.0
  0
LINE
  5
11C2
330
1F
100
AcDbEntity
  8
0
 62
     7
100
AcDbLine
 10
1501.437016540171
 20
177.642423678536
 30
0.0
 11
1501.312016286853
 21
177.3924231718963
 31
0.0
  0
LINE
  5
11C3
330
1F
100
AcDbEntity
  8
0
 62
     7
100
AcDbLine
 10
1501.56201679349
 20
177.642423678536
 30
0.0
 11
1501.437016773001
 21
177.3924231718963
 31
0.0
  0
LINE
  5
11C4
330
1F
100
AcDbEntity
  8
0
 62
     7
100
AcDbLine
 10
1501.56201679349
 20
178.2858446430153
 30
0.0
 11
1501.56201679349
 21
178.175205383796
 31
0.0
  0
LINE
  5
11C5
330
1F
100
AcDbEntity
  8
0
 62
     7
100
AcDbLine
 10
1501.312016286853
 20
178.2858446430153
 30
0.0
 11
1501.312016286853
 21
178.175205383796
 31
0.0
  0
LINE
  5
11C6
330
1F
100
AcDbEntity
  8
0
 62
     3
100
AcDbLine
 10
1460.280486041241
 20
167.4838216216086
 30
0.0
 11
1526.35557100959
 21
167.4838216216086
 31
0.0
  0
ARC
  5
11C7
330
1F
100
AcDbEntity
  8
0
 62
     3
100
AcDbCircle
 10
1526.296611152154
 20
167.9839214759538
 30
0.0
 40
0.5001100731963163
100
AcDbArc
 50
182.5062176073422
 51
270.2377816516094
  0
ARC
  5
11C8
330
1F
100
AcDbEntity
  8
0
 62
     3
100
AcDbCircle
 10
1524.758205283289
 20
167.996079086559
 30
0.0
 40
0.500443547351914
100
AcDbArc
 50
184.4397553077031
 51
270.4980893811854
  0
ARC
  5
11C9
330
1F
100
AcDbEntity
  8
0
 62
     3
100
AcDbCircle
 10
1524.357736990927
 20
167.9945878075602
 30
0.0
 40
0.4823701995177774
100
AcDbArc
 50
291.875449178677
 51
358.4634405817626
  0
LINE
  5
11CA
330
1F
100
AcDbEntity
  8
0
 62
     3
100
AcDbLine
 10
1524.617075697482
 20
168.4424409366882
 30
0.0
 11
1524.234728665056
 21
168.4424234743899
 31
0.0
  0
ARC
  5
11CB
330
1F
100
AcDbEntity
  8
0
 62
     3
100
AcDbCircle
 10
1524.623653067024
 20
168.7123949848846
 30
0.0
 40
0.2700341643712111
100
AcDbArc
 50
268.6042773888349
 51
333.9455033396327
  0
ARC
  5
11CC
330
1F
100
AcDbEntity
  8
0
 62
     3
100
AcDbCircle
 10
1523.408643409119
 20
167.9961031703997
 30
0.0
 40
0.500120073637806
100
AcDbArc
 50
184.3263119805969
 51
269.1931684422923
  0
ARC
  5
11CD
330
1F
100
AcDbEntity
  8
0
 62
     3
100
AcDbCircle
 10
1521.971810670664
 20
167.9886503069966
 30
0.0
 40
0.5039962914729518
100
AcDbArc
 50
183.1228104624974
 51
265.24663658634
  0
LINE
  5
11CE
330
1F
100
AcDbEntity
  8
0
 62
     3
100
AcDbLine
 10
1519.990309850276
 20
168.4424234743899
 30
0.0
 11
1521.208228976025
 21
168.4424235712475
 31
0.0
  0
ARC
  5
11CF
330
1F
100
AcDbEntity
  8
0
 62
     3
100
AcDbCircle
 10
1520.871261027149
 20
168.6921557626243
 30
0.0
 40
0.2492947016848487
100
AcDbArc
 50
184.6578215082194
 51
227.1986773886098
  0
ARC
  5
11D0
330
1F
100
AcDbEntity
  8
0
 62
     3
100
AcDbCircle
 10
1518.148542464721
 20
168.0139580560856
 30
0.0
 40
0.5575519094882841
100
AcDbArc
 50
185.2164496621891
 51
248.3809169866692
  0
ARC
  5
11D1
330
1F
100
AcDbEntity
  8
0
 62
     3
100
AcDbCircle
 10
1514.289924830587
 20
167.9988266915866
 30
0.0
 40
0.503441770346619
100
AcDbArc
 50
184.1012841128358
 51
265.7088003733085
  0
ARC
  5
11D2
330
1F
100
AcDbEntity
  8
0
 62
     3
100
AcDbCircle
 10
1506.21552127217
 20
166.9851053080331
 30
0.0
 40
3.893337871201075
100
AcDbArc
 50
9.192369634224199
 51
14.51948678876627
  0
LINE
  5
11D3
330
1F
100
AcDbEntity
  8
0
 62
     3
100
AcDbLine
 10
1508.286875118526
 20
168.4424235712475
 30
0.0
 11
1509.7241819323
 21
168.4424235712475
 31
0.0
  0
ARC
  5
11D4
330
1F
100
AcDbEntity
  8
0
 62
     3
100
AcDbCircle
 10
1509.570217037927
 20
168.6921534195102
 30
0.0
 40
0.2492856509704845
100
AcDbArc
 50
184.657558048116
 51
227.2001311286387
  0
ARC
  5
11D5
330
1F
100
AcDbEntity
  8
0
 62
     3
100
AcDbCircle
 10
1507.526993752119
 20
168.007060258511
 30
0.0
 40
0.5016487079369109
100
AcDbArc
 50
278.7164054554288
 51
354.7548853592922
  0
ARC
  5
11D6
330
1F
100
AcDbEntity
  8
0
 62
     3
100
AcDbCircle
 10
1501.348786402709
 20
167.7777755285166
 30
0.0
 40
0.2734587700142162
100
AcDbArc
 50
302.8227050265664
 51
357.7782282739002
  0
ARC
  5
11D7
330
1F
100
AcDbEntity
  8
0
 62
     3
100
AcDbCircle
 10
1501.216808345192
 20
167.8086463853758
 30
0.0
 40
0.2645766969067505
100
AcDbArc
 50
186.2301397934781
 51
250.2792515724085
  0
ARC
  5
11D8
330
1F
100
AcDbEntity
  8
0
 62
     3
100
AcDbCircle
 10
1499.710207813295
 20
168.0005854566146
 30
0.0
 40
0.4989662918960446
100
AcDbArc
 50
182.3814773994585
 51
269.1243986945466
  0
ARC
  5
11D9
330
1F
100
AcDbEntity
  8
0
 62
     3
100
AcDbCircle
 10
1496.75557128661
 20
167.7769391029242
 30
0.0
 40
0.236440957541101
100
AcDbArc
 50
288.7854257063192
 51
357.6501785273888
  0
ARC
  5
11DA
330
1F
100
AcDbEntity
  8
0
 62
     3
100
AcDbCircle
 10
1496.046165271057
 20
167.9907403801716
 30
0.0
 40
0.4999631239735582
100
AcDbArc
 50
182.500236886869
 51
226.2276247548542
  0
ARC
  5
11DB
330
1F
100
AcDbEntity
  8
0
 62
     3
100
AcDbCircle
 10
1490.589958139487
 20
167.9907246619573
 30
0.0
 40
0.4998961419094225
100
AcDbArc
 50
314.0738136079075
 51
357.5012311534114
  0
ARC
  5
11DC
330
1F
100
AcDbEntity
  8
0
 62
     3
100
AcDbCircle
 10
1489.879699569299
 20
167.7764552795746
 30
0.0
 40
0.2356355754316478
100
AcDbArc
 50
182.2575694969067
 51
251.5461214539862
  0
ARC
  5
11DD
330
1F
100
AcDbEntity
  8
0
 62
     3
100
AcDbCircle
 10
1486.927439128756
 20
167.997101437305
 30
0.0
 40
0.4954609275955752
100
AcDbArc
 50
270.698352716259
 51
355.5753929701944
  0
ARC
  5
11DE
330
1F
100
AcDbEntity
  8
0
 62
     3
100
AcDbCircle
 10
1485.285576431339
 20
167.7768027607469
 30
0.0
 40
0.2717299200302659
100
AcDbArc
 50
182.0157249569767
 51
237.3616980075555
  0
ARC
  5
11DF
330
1F
100
AcDbEntity
  8
0
 62
     3
100
AcDbCircle
 10
1481.679333348301
 20
168.0004983085395
 30
0.0
 40
0.501660123707922
100
AcDbArc
 50
276.3449505779179
 51
355.2852441937236
  0
LINE
  5
11E0
330
1F
100
AcDbEntity
  8
0
 62
     3
100
AcDbLine
 10
1478.3491819323
 20
168.4424235712475
 30
0.0
 11
1476.911875118525
 21
168.4424235712475
 31
0.0
  0
ARC
  5
11E1
330
1F
100
AcDbEntity
  8
0
 62
     3
100
AcDbCircle
 10
1477.065726728721
 20
168.6922319037966
 30
0.0
 40
0.249421474618774
100
AcDbArc
 50
312.8070271278937
 51
355.1520924532861
  0
ARC
  5
11E2
330
1F
100
AcDbEntity
  8
0
 62
     3
100
AcDbCircle
 10
1479.210460872497
 20
168.0427010768169
 30
0.0
 40
0.6064473564081868
100
AcDbArc
 50
187.7241707992759
 51
237.1113366531067
  0
ARC
  5
11E3
330
1F
100
AcDbEntity
  8
0
 62
     3
100
AcDbCircle
 10
1477.752489703593
 20
167.6436489455116
 30
0.0
 40
1.145827283884629
100
AcDbArc
 50
163.9110152729733
 51
181.0452456820283
  0
ARC
  5
11E4
330
1F
100
AcDbEntity
  8
0
 62
     3
100
AcDbCircle
 10
1472.346137256151
 20
167.9988373744665
 30
0.0
 40
0.5034436084348778
100
AcDbArc
 50
274.2759413686898
 51
355.8320107969633
  0
ARC
  5
11E5
330
1F
100
AcDbEntity
  8
0
 62
     3
100
AcDbCircle
 10
1468.487775473632
 20
168.0136349923443
 30
0.0
 40
0.5571595812128726
100
AcDbArc
 50
291.6074505027499
 51
355.6235759877818
  0
LINE
  5
11E6
330
1F
100
AcDbEntity
  8
0
 62
     3
100
AcDbLine
 10
1466.645756513775
 20
168.4424234743899
 30
0.0
 11
1465.427828074802
 21
168.4424235712475
 31
0.0
  0
ARC
  5
11E7
330
1F
100
AcDbEntity
  8
0
 62
     3
100
AcDbCircle
 10
1465.764792216203
 20
168.6921585394365
 30
0.0
 40
0.2492993260932179
100
AcDbArc
 50
312.801531034908
 51
355.3293837701541
  0
ARC
  5
11E8
330
1F
100
AcDbEntity
  8
0
 62
     3
100
AcDbCircle
 10
1464.663463816859
 20
167.9889130275696
 30
0.0
 40
0.5047917138229776
100
AcDbArc
 50
275.3596919319241
 51
356.8529521148954
  0
ARC
  5
11E9
330
1F
100
AcDbEntity
  8
0
 62
     3
100
AcDbCircle
 10
1463.22755457143
 20
167.9958960245598
 30
0.0
 40
0.4999416773663953
100
AcDbArc
 50
270.5045068542881
 51
355.837638012294
  0
ARC
  5
11EA
330
1F
100
AcDbEntity
  8
0
 62
     3
100
AcDbCircle
 10
1461.875973245924
 20
167.9998811137869
 30
0.0
 40
0.5042326256130295
100
AcDbArc
 50
269.7186910899443
 51
357.0327708292509
  0
ARC
  5
11EB
330
1F
100
AcDbEntity
  8
0
 62
     3
100
AcDbCircle
 10
1462.277073801516
 20
167.99378581705
 30
0.0
 40
0.4811051996837855
100
AcDbArc
 50
181.4354743271589
 51
248.1603989395765
  0
ARC
  5
11EC
330
1F
100
AcDbEntity
  8
0
 62
     3
100
AcDbCircle
 10
1462.02259136263
 20
168.7304245430768
 30
0.0
 40
0.2880791740984285
100
AcDbArc
 50
208.6942001208786
 51
268.5550138779947
  0
LINE
  5
11ED
330
1F
100
AcDbEntity
  8
0
 62
     3
100
AcDbLine
 10
1462.015326843562
 20
168.4424369785676
 30
0.0
 11
1462.403233091131
 21
168.4424234743899
 31
0.0
  0
ARC
  5
11EE
330
1F
100
AcDbEntity
  8
0
 62
     3
100
AcDbCircle
 10
1460.339780689846
 20
167.9835880995772
 30
0.0
 40
0.4997611258773329
100
AcDbArc
 50
269.8688812053374
 51
357.5302878292743
  0
ARC
  5
11EF
330
1F
100
AcDbEntity
  8
0
 62
     3
100
AcDbCircle
 10
1467.511410496199
 20
169.469004592023
 30
0.0
 40
5.049811162975426
100
AcDbArc
 50
116.263055681123
 51
177.2271254303348
  0
ARC
  5
11F0
330
1F
100
AcDbEntity
  8
0
 62
     3
100
AcDbCircle
 10
1465.175058317258
 20
174.2154312892292
 30
0.0
 40
0.2405244582621655
100
AcDbArc
 50
295.0514838329261
 51
357.2060099571272
  0
ARC
  5
11F1
330
1F
100
AcDbEntity
  8
0
 62
     3
100
AcDbCircle
 10
1466.430638680006
 20
174.2027375001511
 30
0.0
 40
0.2347784248059575
100
AcDbArc
 50
299.0693217107244
 51
340.9636623367515
  0
ARC
  5
11F2
330
1F
100
AcDbEntity
  8
0
 62
     3
100
AcDbCircle
 10
1468.952324217847
 20
169.4629869425163
 30
0.0
 40
5.134074360317081
100
AcDbArc
 50
117.9660361160181
 51
177.1375510767553
  0
ARC
  5
11F3
330
1F
100
AcDbEntity
  8
0
 62
     3
100
AcDbCircle
 10
1470.614035078507
 20
170.2984570785985
 30
0.0
 40
4.200230868420709
100
AcDbArc
 50
92.83134093204036
 51
140.9542050962395
  0
ARC
  5
11F4
330
1F
100
AcDbEntity
  8
0
 62
     3
100
AcDbCircle
 10
1471.748826348363
 20
169.3393984687751
 30
0.0
 40
5.685788021393218
100
AcDbArc
 50
140.6519541800295
 51
176.1795637816539
  0
ARC
  5
11F5
330
1F
100
AcDbEntity
  8
0
 62
     3
100
AcDbCircle
 10
1474.320806305943
 20
169.7803112859097
 30
0.0
 40
5.097361374415473
100
AcDbArc
 50
124.1741212308781
 51
161.5359753489268
  0
ARC
  5
11F6
330
1F
100
AcDbEntity
  8
0
 62
     3
100
AcDbCircle
 10
1475.531895678248
 20
169.3143235153742
 30
0.0
 40
6.393956772310371
100
AcDbArc
 50
161.0123193608018
 51
176.39201855358
  0
ARC
  5
11F7
330
1F
100
AcDbEntity
  8
0
 62
     3
100
AcDbCircle
 10
1478.121961756265
 20
170.0986938759024
 30
0.0
 40
5.037675008997181
100
AcDbArc
 50
129.3172159032174
 51
167.4891373625484
  0
ARC
  5
11F8
330
1F
100
AcDbEntity
  8
0
 62
     3
100
AcDbCircle
 10
1479.297370193151
 20
169.4078465077425
 30
0.0
 40
6.348723828520977
100
AcDbArc
 50
163.6975853014996
 51
177.2142958597915
  0
LINE
  5
11F9
330
1F
100
AcDbEntity
  8
0
 62
     3
100
AcDbLine
 10
1471.58484011497
 20
174.9799235712479
 30
0.0
 11
1472.918772564323
 21
174.9799235712479
 31
0.0
  0
LINE
  5
11FA
330
1F
100
AcDbEntity
  8
0
 62
     3
100
AcDbLine
 10
1476.308335483716
 20
174.9799235712474
 30
0.0
 11
1474.974403034361
 21
174.9799235712474
 31
0.0
  0
ARC
  5
11FB
330
1F
100
AcDbEntity
  8
0
 62
     3
100
AcDbCircle
 10
1480.299261548929
 20
172.4986159788536
 30
0.0
 40
2.010792417048508
100
AcDbArc
 50
97.19820615301877
 51
146.4700069247473
  0
ARC
  5
11FC
330
1F
100
AcDbEntity
  8
0
 62
     3
100
AcDbCircle
 10
1485.223372594629
 20
169.3500067742905
 30
0.0
 40
7.855301437963012
100
AcDbArc
 50
147.1649693012776
 51
177.3131698277929
  0
ARC
  5
11FD
330
1F
100
AcDbEntity
  8
0
 62
     3
100
AcDbCircle
 10
1488.623241652649
 20
170.6174941269148
 30
0.0
 40
6.170090606148289
100
AcDbArc
 50
148.3705710152231
 51
168.4458838920864
  0
ARC
  5
11FE
330
1F
100
AcDbEntity
  8
0
 62
     3
100
AcDbCircle
 10
1496.299749588079
 20
168.8337024471867
 30
0.0
 40
14.04989404207127
100
AcDbArc
 50
167.5890958979952
 51
176.3892163645734
  0
ARC
  5
11FF
330
1F
100
AcDbEntity
  8
0
 62
     3
100
AcDbCircle
 10
1506.944226705389
 20
168.8175557285155
 30
0.0
 40
19.45277799025579
100
AcDbArc
 50
164.997204763656
 51
177.3616451181114
  0
ARC
  5
1200
330
1F
100
AcDbEntity
  8
0
 62
     3
100
AcDbCircle
 10
1493.157269105119
 20
169.4799096442712
 30
0.0
 40
2.0000140253683
100
AcDbArc
 50
90.00038175959153
 51
177.4996159837396
  0
ARC
  5
1201
330
1F
100
AcDbEntity
  8
0
 62
     3
100
AcDbCircle
 10
1493.478787567
 20
169.4799092486672
 30
0.0
 40
2.000014420975078
100
AcDbArc
 50
2.500394865307097
 51
89.9996073913498
  0
LINE
  5
1202
330
1F
100
AcDbEntity
  8
0
 62
     3
100
AcDbLine
 10
1483.245508359287
 20
174.9799235712474
 30
0.0
 11
1484.579440808641
 21
174.9799235712474
 31
0.0
  0
LINE
  5
1203
330
1F
100
AcDbEntity
  8
0
 62
     3
100
AcDbLine
 10
1483.286977536463
 20
175.2299235712474
 30
0.0
 11
1484.599079514363
 21
175.2299235712474
 31
0.0
  0
ARC
  5
1204
330
1F
100
AcDbEntity
  8
0
 62
     3
100
AcDbCircle
 10
1468.43471908019
 20
174.6222427347005
 30
0.0
 40
0.129684547198436
100
AcDbArc
 50
200.4406308030779
 51
271.833837182356
  0
ARC
  5
1205
330
1F
100
AcDbEntity
  8
0
 62
     3
100
AcDbCircle
 10
1473.528547664396
 20
174.9169452350702
 30
0.0
 40
0.24986465276745
100
AcDbArc
 50
272.112422669287
 51
357.5320311024536
  0
LINE
  5
1206
330
1F
100
AcDbEntity
  8
0
 62
     3
100
AcDbLine
 10
1475.224079514363
 20
175.2299235712483
 30
0.0
 11
1473.911977536463
 21
175.2299235712483
 31
0.0
  0
LINE
  5
1207
330
1F
100
AcDbEntity
  8
0
 62
     3
100
AcDbLine
 10
1476.424001215506
 20
175.2299235712474
 30
0.0
 11
1477.736103193406
 21
175.2299235712474
 31
0.0
  0
ARC
  5
1208
330
1F
100
AcDbEntity
  8
0
 62
     3
100
AcDbCircle
 10
1482.599627740859
 20
173.6978739457775
 30
0.0
 40
1.121076880680446
100
AcDbArc
 50
72.07941292438997
 51
94.66874500463358
  0
ARC
  5
1209
330
1F
100
AcDbEntity
  8
0
 62
     3
100
AcDbCircle
 10
1479.295210349984
 20
172.1984308504743
 30
0.0
 40
2.622022028260857
100
AcDbArc
 50
83.45292281850154
 51
86.38337027313999
  0
ARC
  5
120A
330
1F
100
AcDbEntity
  8
0
 62
     3
100
AcDbCircle
 10
1479.841589961234
 20
170.7989962276861
 30
0.0
 40
4.023594643528933
100
AcDbArc
 50
83.08248033771617
 51
86.53397887877295
  0
LINE
  5
120B
330
1F
100
AcDbEntity
  8
0
 62
     3
100
AcDbLine
 10
1487.875737414901
 20
174.9799235712474
 30
0.0
 11
1489.209669864255
 21
174.9799235712474
 31
0.0
  0
ARC
  5
120C
330
1F
100
AcDbEntity
  8
0
 62
     3
100
AcDbCircle
 10
1490.887074130613
 20
174.5003931013302
 30
0.0
 40
0.3180350017400345
100
AcDbArc
 50
20.72483093939312
 51
82.0683966291485
  0
ARC
  5
120D
330
1F
100
AcDbEntity
  8
0
 62
     3
100
AcDbCircle
 10
1484.461486873532
 20
172.3162636383491
 30
0.0
 40
7.10450697568728
100
AcDbArc
 50
0.8760074668414596
 51
18.86081159637111
  0
ARC
  5
120E
330
1F
100
AcDbEntity
  8
0
 62
     3
100
AcDbCircle
 10
1495.748982920213
 20
174.5003931013305
 30
0.0
 40
0.3180350017400345
100
AcDbArc
 50
97.93160337085147
 51
159.2751690606069
  0
ARC
  5
120F
330
1F
100
AcDbEntity
  8
0
 62
     3
100
AcDbCircle
 10
1502.174570177296
 20
172.3162636383502
 30
0.0
 40
7.10450697568728
100
AcDbArc
 50
161.1391884036343
 51
179.1239925331618
  0
LINE
  5
1210
330
1F
100
AcDbEntity
  8
0
 62
     3
100
AcDbLine
 10
1492.661977536463
 20
175.2299235712474
 30
0.0
 11
1493.974079514363
 21
175.2299235712474
 31
0.0
  0
ARC
  5
1211
330
1F
100
AcDbEntity
  8
0
 62
     3
100
AcDbCircle
 10
1493.248900265235
 20
174.5445574675105
 30
0.0
 40
0.1223070099450542
100
AcDbArc
 50
136.2434965222141
 51
177.6671810212888
  0
ARC
  5
1212
330
1F
100
AcDbEntity
  8
0
 62
     3
100
AcDbCircle
 10
1493.387154197482
 20
174.5445570730144
 30
0.0
 40
0.1223098371331039
100
AcDbArc
 50
2.33687972710988
 51
43.75367921935519
  0
CIRCLE
  5
1213
330
1F
100
AcDbEntity
  8
0
 62
     3
100
AcDbCircle
 10
1493.318028525338
 20
169.9799736613282
 30
0.0
 40
0.6249877644225485
  0
LINE
  5
1214
330
1F
100
AcDbEntity
  8
0
 62
     3
100
AcDbLine
 10
1498.760319635936
 20
174.9799235712478
 30
0.0
 11
1497.426387186581
 21
174.9799235712474
 31
0.0
  0
ARC
  5
1215
330
1F
100
AcDbEntity
  8
0
 62
     3
100
AcDbCircle
 10
1476.091296304224
 20
168.2586561559802
 30
0.0
 40
23.07858903540488
100
AcDbArc
 50
3.613887171262965
 51
14.02896053370312
  0
LINE
  5
1216
330
1F
100
AcDbEntity
  8
0
 62
     3
100
AcDbLine
 10
1499.350176459238
 20
171.9799235712476
 30
0.0
 11
1500.61506141437
 21
171.9799235712476
 31
0.0
  0
LINE
  5
1217
330
1F
100
AcDbEntity
  8
0
 62
     3
100
AcDbLine
 10
1502.036977536463
 20
175.2299235712474
 30
0.0
 11
1503.349079514363
 21
175.2299235712474
 31
0.0
  0
LINE
  5
1218
330
1F
100
AcDbEntity
  8
0
 62
     3
100
AcDbLine
 10
1502.056616242195
 20
174.9799235712474
 30
0.0
 11
1503.390548691549
 21
174.9799235712474
 31
0.0
  0
ARC
  5
1219
330
1F
100
AcDbEntity
  8
0
 62
     3
100
AcDbCircle
 10
1498.500121666625
 20
170.810903836558
 30
0.0
 40
5.65445985178912
100
AcDbArc
 50
10.62912322628145
 51
32.54985198399457
  0
ARC
  5
121A
330
1F
100
AcDbEntity
  8
0
 62
     3
100
AcDbCircle
 10
1489.949085192391
 20
168.7779331784082
 30
0.0
 40
14.43989250326634
100
AcDbArc
 50
3.734280421795987
 51
12.29920916998667
  0
ARC
  5
121B
330
1F
100
AcDbEntity
  8
0
 62
     3
100
AcDbCircle
 10
1507.204823085108
 20
173.7831705886675
 30
0.0
 40
1.03329994249749
100
AcDbArc
 50
86.53188612006326
 51
99.12945730090285
  0
ARC
  5
121C
330
1F
100
AcDbEntity
  8
0
 62
     3
100
AcDbCircle
 10
1506.567034085357
 20
173.3673700412117
 30
0.0
 40
1.448991079202019
100
AcDbArc
 50
87.15737485644963
 51
100.2336948933117
  0
ARC
  5
121D
330
1F
100
AcDbEntity
  8
0
 62
     3
100
AcDbCircle
 10
1504.066820754188
 20
173.5495360996958
 30
0.0
 40
1.271946180066948
100
AcDbArc
 50
84.02753086839167
 51
107.2008413391354
  0
LINE
  5
121E
330
1F
100
AcDbEntity
  8
0
 62
     3
100
AcDbLine
 10
1508.899953857421
 20
175.2299235712474
 30
0.0
 11
1510.212055835321
 21
175.2299235712474
 31
0.0
  0
LINE
  5
121F
330
1F
100
AcDbEntity
  8
0
 62
     3
100
AcDbLine
 10
1510.327721567121
 20
174.9799235712482
 30
0.0
 11
1511.661654016476
 21
174.9799235712482
 31
0.0
  0
LINE
  5
1220
330
1F
100
AcDbEntity
  8
0
 62
     3
100
AcDbLine
 10
1511.411977536463
 20
175.2299235712478
 30
0.0
 11
1512.724079514363
 21
175.2299235712478
 31
0.0
  0
ARC
  5
1221
330
1F
100
AcDbEntity
  8
0
 62
     3
100
AcDbCircle
 10
1513.107641191924
 20
174.9170778610241
 30
0.0
 40
0.2500020791621541
100
AcDbArc
 50
182.4970353281974
 51
267.8585109002063
  0
LINE
  5
1222
330
1F
100
AcDbEntity
  8
0
 62
     3
100
AcDbLine
 10
1513.717284486511
 20
174.9799235712478
 30
0.0
 11
1515.051216935866
 21
174.9799235712478
 31
0.0
  0
LINE
  5
1223
330
1F
100
AcDbEntity
  8
0
 62
     3
100
AcDbLine
 10
1521.067207957915
 20
174.9799235712474
 30
0.0
 11
1518.495797888339
 21
174.9799233119673
 31
0.0
  0
ARC
  5
1224
330
1F
100
AcDbEntity
  8
0
 62
     3
100
AcDbCircle
 10
1520.204871568662
 20
174.2235799660768
 30
0.0
 40
0.2529525517253335
100
AcDbArc
 50
182.6744750203814
 51
243.3329886886115
  0
ARC
  5
1225
330
1F
100
AcDbEntity
  8
0
 62
     3
100
AcDbCircle
 10
1521.461013657574
 20
174.2154431488281
 30
0.0
 40
0.2405403110524307
100
AcDbArc
 50
182.7801986030229
 51
244.9468468679238
  0
ARC
  5
1226
330
1F
100
AcDbEntity
  8
0
 62
     3
100
AcDbCircle
 10
1506.484958703696
 20
172.8374298303965
 30
0.0
 40
1.659329627724652
100
AcDbArc
 50
41.73757803566743
 51
86.41385419848688
  0
ARC
  5
1227
330
1F
100
AcDbEntity
  8
0
 62
     3
100
AcDbCircle
 10
1503.469369406463
 20
170.2384359930319
 30
0.0
 40
5.640181393391539
100
AcDbArc
 50
11.9647687732404
 51
41.04511589462913
  0
ARC
  5
1228
330
1F
100
AcDbEntity
  8
0
 62
     3
100
AcDbCircle
 10
1497.521196067988
 20
168.6928049352278
 30
0.0
 40
11.78285936845932
100
AcDbArc
 50
4.99261454711925
 51
13.3212587975049
  0
ARC
  5
1229
330
1F
100
AcDbEntity
  8
0
 62
     3
100
AcDbCircle
 10
1510.190528510183
 20
171.6904053604671
 30
0.0
 40
2.753882898795955
100
AcDbArc
 50
34.15558959841168
 51
56.36805732418693
  0
ARC
  5
122A
330
1F
100
AcDbEntity
  8
0
 62
     3
100
AcDbCircle
 10
1506.985023030951
 20
169.3823975968455
 30
0.0
 40
6.703208797397851
100
AcDbArc
 50
2.858447449822937
 51
35.09763252374424
  0
ARC
  5
122B
330
1F
100
AcDbEntity
  8
0
 62
     3
100
AcDbCircle
 10
1512.353527674466
 20
169.8068186540058
 30
0.0
 40
5.053960712476893
100
AcDbArc
 50
21.64825367791074
 51
56.01606031667611
  0
ARC
  5
122C
330
1F
100
AcDbEntity
  8
0
 62
     3
100
AcDbCircle
 10
1511.278876861958
 20
169.3627534403723
 30
0.0
 40
6.216652574967334
100
AcDbArc
 50
3.262421874721286
 51
21.79845391619937
  0
ARC
  5
122D
330
1F
100
AcDbEntity
  8
0
 62
     3
100
AcDbCircle
 10
1516.021709092738
 20
170.2978244519718
 30
0.0
 40
4.200827865236118
100
AcDbArc
 50
39.04919862746062
 51
87.16481456720314
  0
ARC
  5
122E
330
1F
100
AcDbEntity
  8
0
 62
     3
100
AcDbCircle
 10
1514.886640739187
 20
169.3390867297817
 30
0.0
 40
5.686397140740629
100
AcDbArc
 50
3.823127408855286
 51
39.34625812637218
  0
ARC
  5
122F
330
1F
100
AcDbEntity
  8
0
 62
     3
100
AcDbCircle
 10
1517.685491396238
 20
169.4640962815826
 30
0.0
 40
5.132269530768605
100
AcDbArc
 50
2.840029740786901
 51
62.04551676577345
  0
ARC
  5
1230
330
1F
100
AcDbEntity
  8
0
 62
     3
100
AcDbCircle
 10
1519.124654025659
 20
169.4690218265161
 30
0.0
 40
5.049793643486346
100
AcDbArc
 50
2.772706936495752
 51
63.73691719422019
  0
CIRCLE
  5
1233
330
1F
100
AcDbEntity
  8
0
100
AcDbCircle
 10
1537.936512529842
 20
190.7488852404035
 30
0.0
 40
5.0
  0
TEXT
  5
1234
330
1F
100
AcDbEntity
  8
0
 62
     4
100
AcDbText
 10
1536.755998135759
 20
187.6645694420361
 30
0.0
 40
6.299999999999998
  1
1
  7
高6.3
100
AcDbText
  0
CIRCLE
  5
1235
330
1F
100
AcDbEntity
  8
0
100
AcDbCircle
 10
1537.936512529842
 20
202.0170806186496
 30
0.0
 40
5.0
  0
TEXT
  5
1236
330
1F
100
AcDbEntity
  8
0
 62
     4
100
AcDbText
 10
1535.984001727702
 20
198.9327648202823
 30
0.0
 40
6.299999999999998
  1
5
  7
高6.3
100
AcDbText
  0
CIRCLE
  5
1237
330
1F
100
AcDbEntity
  8
0
100
AcDbCircle
 10
1537.936512529842
 20
213.0854059411512
 30
0.0
 40
5.0
  0
TEXT
  5
1238
330
1F
100
AcDbEntity
  8
0
 62
     4
100
AcDbText
 10
1535.984001727702
 20
210.0010901427837
 30
0.0
 40
6.299999999999998
  1
6
  7
高6.3
100
AcDbText
  0
CIRCLE
  5
123A
330
1F
100
AcDbEntity
  8
0
100
AcDbCircle
 10
1537.936512529842
 20
179.5711451871758
 30
0.0
 40
5.0
  0
TEXT
  5
123B
330
1F
100
AcDbEntity
  8
0
 62
     4
100
AcDbText
 10
1535.984001727702
 20
176.4868293888084
 30
0.0
 40
6.299999999999998
  1
3
  7
高6.3
100
AcDbText
  0
ARC
  5
123D
330
1F
100
AcDbEntity
  8
0
 62
     3
100
AcDbCircle
 10
1493.318028525414
 20
192.4674235712472
 30
0.0
 40
40.0
100
AcDbArc
 50
225.3205494254988
 51
314.6794505745012
  0
LINE
  5
14F5
330
1F
100
AcDbEntity
  8
0
100
AcDbLine
 10
1493.068028525413
 20
241.1503543838594
 30
0.0
 11
1450.607021674742
 21
241.1503543838594
 31
0.0
  0
LINE
  5
14F8
330
1F
100
AcDbEntity
  8
0
100
AcDbLine
 10
1493.068028525414
 20
152.4674235712471
 30
0.0
 11
1450.607021674742
 21
152.4674235712472
 31
0.0
  0
LINE
  5
14F9
330
1F
100
AcDbEntity
  8
0
100
AcDbLine
 10
1451.857021674742
 20
238.6503543838594
 30
0.0
 11
1451.857021674742
 21
154.9674235712472
 31
0.0
  0
LINE
  5
1505
330
1F
100
AcDbEntity
  8
0
100
AcDbLine
 10
1493.068028525414
 20
241.1503543838595
 30
0.0
 11
1456.081441025498
 21
241.1503543838595
 31
0.0
  0
LINE
  5
1506
330
1F
100
AcDbEntity
  8
0
100
AcDbLine
 10
1461.381573514045
 20
164.0253553822375
 30
0.0
 11
1456.081441025498
 21
164.0253553822375
 31
0.0
  0
LINE
  5
1507
330
1F
100
AcDbEntity
  8
0
100
AcDbLine
 10
1457.331441025498
 20
238.6503543838595
 30
0.0
 11
1457.331441025498
 21
166.5253553822374
 31
0.0
  0
LINE
  5
150B
330
1F
100
AcDbEntity
  8
0
100
AcDbLine
 10
1493.068028525414
 20
241.1503543838595
 30
0.0
 11
1470.757729340237
 21
241.1503543838595
 31
0.0
  0
LINE
  5
150C
330
1F
100
AcDbEntity
  8
0
100
AcDbLine
 10
1485.668028523179
 20
178.2049238871521
 30
0.0
 11
1470.757729340237
 21
178.2049238871521
 31
0.0
  0
LINE
  5
150D
330
1F
100
AcDbEntity
  8
0
100
AcDbLine
 10
1472.007729340237
 20
238.6503543838595
 30
0.0
 11
1472.007729340237
 21
180.7049238871521
 31
0.0
  0
LINE
  5
1511
330
1F
100
AcDbEntity
  8
0
100
AcDbLine
 10
1459.818027690949
 20
166.3924235635175
 30
0.0
 11
1459.818027690949
 21
142.9539065798317
 31
0.0
  0
LINE
  5
1512
330
1F
100
AcDbEntity
  8
0
100
AcDbLine
 10
1526.818029359878
 20
166.3924235635175
 30
0.0
 11
1526.818029359878
 21
142.9539065798317
 31
0.0
  0
LINE
  5
1513
330
1F
100
AcDbEntity
  8
0
100
AcDbLine
 10
1462.318027690949
 20
144.2039065798317
 30
0.0
 11
1524.318029359878
 21
144.2039065798317
 31
0.0
  0
LINE
  5
151B
330
1F
100
AcDbEntity
  8
0
100
AcDbLine
 10
1488.318028556292
 20
231.8099855584538
 30
0.0
 11
1488.318028556292
 21
252.6285645614465
 31
0.0
  0
LINE
  5
151C
330
1F
100
AcDbEntity
  8
0
100
AcDbLine
 10
1498.318028444534
 20
231.8099838033427
 30
0.0
 11
1498.318028444534
 21
252.6285645614465
 31
0.0
  0
LINE
  5
151D
330
1F
100
AcDbEntity
  8
0
100
AcDbLine
 10
1500.818028444534
 20
251.3785645614465
 30
0.0
 11
1503.318028444534
 21
251.3785645614465
 31
0.0
  0
LINE
  5
151E
330
1F
100
AcDbEntity
  8
0
100
AcDbLine
 10
1485.818028556292
 20
251.3785645614465
 30
0.0
 11
1473.36092054112
 21
251.3785645614465
 31
0.0
  0
LINE
  5
151F
330
1F
100
AcDbEntity
  8
0
100
AcDbLine
 10
1498.318028444534
 20
251.3785645614465
 30
0.0
 11
1488.318028556292
 21
251.3785645614465
 31
0.0
  0
LINE
  5
1523
330
1F
100
AcDbEntity
  8
0
 62
     3
100
AcDbLine
 10
1488.69347104182
 20
287.7208978059564
 30
0.0
 11
1488.67484351182
 21
287.8401655759564
 31
0.0
  0
LINE
  5
1524
330
1F
100
AcDbEntity
  8
0
 62
     3
100
AcDbLine
 10
1488.67484351182
 20
287.8401655759564
 30
0.0
 11
1488.65247233182
 21
287.9543703559564
 31
0.0
  0
LINE
  5
1525
330
1F
100
AcDbEntity
  8
0
 62
     3
100
AcDbLine
 10
1488.65247233182
 20
287.9543703559564
 30
0.0
 11
1488.62653040182
 21
288.0626294159564
 31
0.0
  0
LINE
  5
1526
330
1F
100
AcDbEntity
  8
0
 62
     3
100
AcDbLine
 10
1488.62653040182
 20
288.0626294159564
 30
0.0
 11
1488.59721826182
 21
288.1641059659563
 31
0.0
  0
LINE
  5
1527
330
1F
100
AcDbEntity
  8
0
 62
     3
100
AcDbLine
 10
1488.59721826182
 20
288.1641059659563
 30
0.0
 11
1488.564762451821
 21
288.2580156459564
 31
0.0
  0
LINE
  5
1528
330
1F
100
AcDbEntity
  8
0
 62
     3
100
AcDbLine
 10
1488.564762451821
 20
288.2580156459564
 30
0.0
 11
1488.529413861821
 21
288.3436325859563
 31
0.0
  0
LINE
  5
1529
330
1F
100
AcDbEntity
  8
0
 62
     3
100
AcDbLine
 10
1488.529413861821
 20
288.3436325859563
 30
0.0
 11
1488.49144571182
 21
288.4202949959564
 31
0.0
  0
LINE
  5
152A
330
1F
100
AcDbEntity
  8
0
 62
     3
100
AcDbLine
 10
1488.49144571182
 20
288.4202949959564
 30
0.0
 11
1488.45115146182
 21
288.4874103359564
 31
0.0
  0
LINE
  5
152B
330
1F
100
AcDbEntity
  8
0
 62
     3
100
AcDbLine
 10
1488.45115146182
 20
288.4874103359564
 30
0.0
 11
1488.40884259182
 21
288.5444598259563
 31
0.0
  0
LINE
  5
152C
330
1F
100
AcDbEntity
  8
0
 62
     3
100
AcDbLine
 10
1488.40884259182
 20
288.5444598259563
 30
0.0
 11
1488.36484610182
 21
288.5910024959564
 31
0.0
  0
LINE
  5
152D
330
1F
100
AcDbEntity
  8
0
 62
     3
100
AcDbLine
 10
1488.36484610182
 20
288.5910024959564
 30
0.0
 11
1488.31950208182
 21
288.6266786159564
 31
0.0
  0
LINE
  5
152E
330
1F
100
AcDbEntity
  8
0
 62
     3
100
AcDbLine
 10
1488.31950208182
 20
288.6266786159564
 30
0.0
 11
1488.27316101182
 21
288.6512124059564
 31
0.0
  0
LINE
  5
152F
330
1F
100
AcDbEntity
  8
0
 62
     3
100
AcDbLine
 10
1488.27316101182
 20
288.6512124059564
 30
0.0
 11
1488.22618107182
 21
288.6644142559564
 31
0.0
  0
LINE
  5
1530
330
1F
100
AcDbEntity
  8
0
 62
     3
100
AcDbLine
 10
1488.22618107182
 20
288.6644142559564
 30
0.0
 11
1488.17892541182
 21
288.6661820959563
 31
0.0
  0
LINE
  5
1531
330
1F
100
AcDbEntity
  8
0
 62
     3
100
AcDbLine
 10
1488.17892541182
 20
288.6661820959563
 30
0.0
 11
1488.13175928182
 21
288.6565022859564
 31
0.0
  0
LINE
  5
1532
330
1F
100
AcDbEntity
  8
0
 62
     3
100
AcDbLine
 10
1488.13175928182
 20
288.6565022859564
 30
0.0
 11
1488.08504725182
 21
288.6354496259563
 31
0.0
  0
LINE
  5
1533
330
1F
100
AcDbEntity
  8
0
 62
     3
100
AcDbLine
 10
1488.08504725182
 20
288.6354496259563
 30
0.0
 11
1488.03915039182
 21
288.6031868559564
 31
0.0
  0
LINE
  5
1534
330
1F
100
AcDbEntity
  8
0
 62
     3
100
AcDbLine
 10
1488.03915039182
 20
288.6031868559564
 30
0.0
 11
1487.99442345182
 21
288.5599633459563
 31
0.0
  0
LINE
  5
1535
330
1F
100
AcDbEntity
  8
0
 62
     3
100
AcDbLine
 10
1487.99442345182
 20
288.5599633459563
 30
0.0
 11
1487.95121214182
 21
288.5061131859564
 31
0.0
  0
LINE
  5
1536
330
1F
100
AcDbEntity
  8
0
 62
     3
100
AcDbLine
 10
1487.95121214182
 20
288.5061131859564
 30
0.0
 11
1487.90985048182
 21
288.4420526159563
 31
0.0
  0
LINE
  5
1537
330
1F
100
AcDbEntity
  8
0
 62
     3
100
AcDbLine
 10
1487.90985048182
 20
288.4420526159563
 30
0.0
 11
1487.87065816182
 21
288.3682767959564
 31
0.0
  0
LINE
  5
1538
330
1F
100
AcDbEntity
  8
0
 62
     3
100
AcDbLine
 10
1487.87065816182
 20
288.3682767959564
 30
0.0
 11
1487.83393812182
 21
288.2853559659563
 31
0.0
  0
LINE
  5
1539
330
1F
100
AcDbEntity
  8
0
 62
     3
100
AcDbLine
 10
1487.83393812182
 20
288.2853559659563
 30
0.0
 11
1487.79997419182
 21
288.1939310559564
 31
0.0
  0
LINE
  5
153A
330
1F
100
AcDbEntity
  8
0
 62
     3
100
AcDbLine
 10
1487.79997419182
 20
288.1939310559564
 30
0.0
 11
1487.76902889182
 21
288.0947087559564
 31
0.0
  0
LINE
  5
153B
330
1F
100
AcDbEntity
  8
0
 62
     3
100
AcDbLine
 10
1487.76902889182
 20
288.0947087559564
 30
0.0
 11
1487.74134141182
 21
287.9884559859562
 31
0.0
  0
LINE
  5
153C
330
1F
100
AcDbEntity
  8
0
 62
     3
100
AcDbLine
 10
1487.74134141182
 20
287.9884559859562
 30
0.0
 11
1487.71712576182
 21
287.8759940259564
 31
0.0
  0
LINE
  5
153D
330
1F
100
AcDbEntity
  8
0
 62
     3
100
AcDbLine
 10
1487.71712576182
 20
287.8759940259564
 30
0.0
 11
1487.69656912182
 21
287.7581921459563
 31
0.0
  0
LINE
  5
153E
330
1F
100
AcDbEntity
  8
0
 62
     3
100
AcDbLine
 10
1487.69656912182
 20
287.7581921459563
 30
0.0
 11
1487.67983038182
 21
287.6359609059564
 31
0.0
  0
LINE
  5
153F
330
1F
100
AcDbEntity
  8
0
 62
     3
100
AcDbLine
 10
1487.67983038182
 20
287.6359609059564
 30
0.0
 11
1487.66703892182
 21
287.5102450859563
 31
0.0
  0
LINE
  5
1540
330
1F
100
AcDbEntity
  8
0
 62
     3
100
AcDbLine
 10
1487.66703892182
 20
287.5102450859563
 30
0.0
 11
1487.65829361182
 21
287.3820164059564
 31
0.0
  0
LINE
  5
1541
330
1F
100
AcDbEntity
  8
0
 62
     3
100
AcDbLine
 10
1487.65829361182
 20
287.3820164059564
 30
0.0
 11
1487.65366205182
 21
287.2522659959563
 31
0.0
  0
LINE
  5
1542
330
1F
100
AcDbEntity
  8
0
 62
     3
100
AcDbLine
 10
1487.65366205182
 20
287.2522659959563
 30
0.0
 11
1487.65318004182
 21
287.1219967659564
 31
0.0
  0
LINE
  5
1543
330
1F
100
AcDbEntity
  8
0
 62
     3
100
AcDbLine
 10
1487.65318004182
 20
287.1219967659564
 30
0.0
 11
1487.65685130182
 21
286.9922156459564
 31
0.0
  0
LINE
  5
1544
330
1F
100
AcDbEntity
  8
0
 62
     3
100
AcDbLine
 10
1487.65685130182
 20
286.9922156459564
 30
0.0
 11
1487.66464746182
 21
286.8639257559564
 31
0.0
  0
LINE
  5
1545
330
1F
100
AcDbEntity
  8
0
 62
     3
100
AcDbLine
 10
1487.66464746182
 20
286.8639257559564
 30
0.0
 11
1487.67650826182
 21
286.7381187159564
 31
0.0
  0
LINE
  5
1546
330
1F
100
AcDbEntity
  8
0
 62
     3
100
AcDbLine
 10
1487.67650826182
 20
286.7381187159564
 30
0.0
 11
1487.69234202182
 21
286.6157669459564
 31
0.0
  0
LINE
  5
1547
330
1F
100
AcDbEntity
  8
0
 62
     3
100
AcDbLine
 10
1487.69234202182
 20
286.6157669459564
 30
0.0
 11
1487.71202634182
 21
286.4978161759564
 31
0.0
  0
LINE
  5
1548
330
1F
100
AcDbEntity
  8
0
 62
     3
100
AcDbLine
 10
1487.71202634182
 20
286.4978161759564
 30
0.0
 11
1487.735409101819
 21
286.3851781059564
 31
0.0
  0
LINE
  5
1549
330
1F
100
AcDbEntity
  8
0
 62
     3
100
AcDbLine
 10
1487.735409101819
 20
286.3851781059564
 30
0.0
 11
1487.76230953182
 21
286.2787233459564
 31
0.0
  0
LINE
  5
154A
330
1F
100
AcDbEntity
  8
0
 62
     3
100
AcDbLine
 10
1487.76230953182
 20
286.2787233459564
 30
0.0
 11
1487.79251973182
 21
286.1792747559564
 31
0.0
  0
LINE
  5
154B
330
1F
100
AcDbEntity
  8
0
 62
     3
100
AcDbLine
 10
1487.79251973182
 20
286.1792747559564
 30
0.0
 11
1487.82580618182
 21
286.0876010259564
 31
0.0
  0
LINE
  5
154C
330
1F
100
AcDbEntity
  8
0
 62
     3
100
AcDbLine
 10
1487.82580618182
 20
286.0876010259564
 30
0.0
 11
1487.86191158182
 21
286.0044107259564
 31
0.0
  0
LINE
  5
154D
330
1F
100
AcDbEntity
  8
0
 62
     3
100
AcDbLine
 10
1487.86191158182
 20
286.0044107259564
 30
0.0
 11
1487.90055688182
 21
285.9303468959563
 31
0.0
  0
LINE
  5
154E
330
1F
100
AcDbEntity
  8
0
 62
     3
100
AcDbLine
 10
1487.90055688182
 20
285.9303468959563
 30
0.0
 11
1487.94144336182
 21
285.8659820059563
 31
0.0
  0
LINE
  5
154F
330
1F
100
AcDbEntity
  8
0
 62
     3
100
AcDbLine
 10
1487.94144336182
 20
285.8659820059563
 30
0.0
 11
1487.98425498182
 21
285.8118135559564
 31
0.0
  0
LINE
  5
1550
330
1F
100
AcDbEntity
  8
0
 62
     3
100
AcDbLine
 10
1487.98425498182
 20
285.8118135559564
 30
0.0
 11
1488.028660841821
 21
285.7682602359563
 31
0.0
  0
LINE
  5
1551
330
1F
100
AcDbEntity
  8
0
 62
     3
100
AcDbLine
 10
1488.028660841821
 20
285.7682602359563
 30
0.0
 11
1488.07431769182
 21
285.7356587059564
 31
0.0
  0
LINE
  5
1552
330
1F
100
AcDbEntity
  8
0
 62
     3
100
AcDbLine
 10
1488.07431769182
 20
285.7356587059564
 30
0.0
 11
1488.12087265182
 21
285.7142609459562
 31
0.0
  0
LINE
  5
1553
330
1F
100
AcDbEntity
  8
0
 62
     3
100
AcDbLine
 10
1488.12087265182
 20
285.7142609459562
 30
0.0
 11
1488.16796586182
 21
285.7042323659564
 31
0.0
  0
LINE
  5
1554
330
1F
100
AcDbEntity
  8
0
 62
     3
100
AcDbLine
 10
1488.16796586182
 20
285.7042323659564
 30
0.0
 11
1488.21523331182
 21
285.7056504659563
 31
0.0
  0
LINE
  5
1555
330
1F
100
AcDbEntity
  8
0
 62
     3
100
AcDbLine
 10
1488.21523331182
 20
285.7056504659563
 30
0.0
 11
1488.26230965182
 21
285.7185042859563
 31
0.0
  0
LINE
  5
1556
330
1F
100
AcDbEntity
  8
0
 62
     3
100
AcDbLine
 10
1488.26230965182
 20
285.7185042859563
 30
0.0
 11
1488.30883101182
 21
285.7426944859564
 31
0.0
  0
LINE
  5
1557
330
1F
100
AcDbEntity
  8
0
 62
     3
100
AcDbLine
 10
1488.30883101182
 20
285.7426944859564
 30
0.0
 11
1488.35443780182
 21
285.7780340659564
 31
0.0
  0
LINE
  5
1558
330
1F
100
AcDbEntity
  8
0
 62
     3
100
AcDbLine
 10
1488.35443780182
 20
285.7780340659564
 30
0.0
 11
1488.39877750182
 21
285.8242498859563
 31
0.0
  0
LINE
  5
1559
330
1F
100
AcDbEntity
  8
0
 62
     3
100
AcDbLine
 10
1488.39877750182
 20
285.8242498859563
 30
0.0
 11
1488.44150739182
 21
285.8809847259564
 31
0.0
  0
LINE
  5
155A
330
1F
100
AcDbEntity
  8
0
 62
     3
100
AcDbLine
 10
1488.44150739182
 20
285.8809847259564
 30
0.0
 11
1488.48229719182
 21
285.9478000359564
 31
0.0
  0
LINE
  5
155B
330
1F
100
AcDbEntity
  8
0
 62
     3
100
AcDbLine
 10
1488.48229719182
 20
285.9478000359564
 30
0.0
 11
1488.52083162182
 21
286.0241793859564
 31
0.0
  0
LINE
  5
155C
330
1F
100
AcDbEntity
  8
0
 62
     3
100
AcDbLine
 10
1488.52083162182
 20
286.0241793859564
 30
0.0
 11
1488.556812821821
 21
286.1095323959562
 31
0.0
  0
LINE
  5
155D
330
1F
100
AcDbEntity
  8
0
 62
     3
100
AcDbLine
 10
1488.556812821821
 20
286.1095323959562
 30
0.0
 11
1488.58996268182
 21
286.2031993259563
 31
0.0
  0
LINE
  5
155E
330
1F
100
AcDbEntity
  8
0
 62
     3
100
AcDbLine
 10
1488.58996268182
 20
286.2031993259563
 30
0.0
 11
1488.62002496182
 21
286.3044561859564
 31
0.0
  0
LINE
  5
155F
330
1F
100
AcDbEntity
  8
0
 62
     3
100
AcDbLine
 10
1488.62002496182
 20
286.3044561859564
 30
0.0
 11
1488.64676731182
 21
286.4125203059564
 31
0.0
  0
LINE
  5
1560
330
1F
100
AcDbEntity
  8
0
 62
     3
100
AcDbLine
 10
1488.64676731182
 20
286.4125203059564
 30
0.0
 11
1488.66998301182
 21
286.5265564159563
 31
0.0
  0
LINE
  5
1561
330
1F
100
AcDbEntity
  8
0
 62
     3
100
AcDbLine
 10
1488.66998301182
 20
286.5265564159563
 30
0.0
 11
1488.68949262182
 21
286.6456830659564
 31
0.0
  0
TEXT
  5
1562
330
1F
100
AcDbEntity
  8
0
 62
     4
100
AcDbText
 10
1451.232021674742
 20
189.9196802122178
 30
0.0
 40
3.0
  1
354.7
 50
90.0
100
AcDbText
  0
LINE
  5
1563
330
1F
100
AcDbEntity
  8
0
  6
ByBlock
 62
     0
370
    -2
100
AcDbLine
 10
1452.526894174743
 20
154.9674235712472
 30
0.0
 11
1451.857021674742
 21
152.4674235712472
 31
0.0
  0
LINE
  5
1564
330
1F
100
AcDbEntity
  8
0
  6
ByBlock
 62
     0
370
    -2
100
AcDbLine
 10
1451.857021674742
 20
152.4674235712472
 30
0.0
 11
1451.187149174742
 21
154.9674235712472
 31
0.0
  0
LINE
  5
1565
330
1F
100
AcDbEntity
  8
0
  6
ByBlock
 62
     0
370
    -2
100
AcDbLine
 10
1451.857021674742
 20
152.4674235712472
 30
0.0
 11
1451.857021674742
 21
154.9674235712472
 31
0.0
  0
LINE
  5
1566
330
1F
100
AcDbEntity
  8
0
  6
ByBlock
 62
     0
370
    -2
100
AcDbLine
 10
1451.187149174742
 20
238.6503543838594
 30
0.0
 11
1451.857021674742
 21
241.1503543838594
 31
0.0
  0
LINE
  5
1567
330
1F
100
AcDbEntity
  8
0
  6
ByBlock
 62
     0
370
    -2
100
AcDbLine
 10
1451.857021674742
 20
241.1503543838594
 30
0.0
 11
1452.526894174743
 21
238.6503543838594
 31
0.0
  0
LINE
  5
1568
330
1F
100
AcDbEntity
  8
0
  6
ByBlock
 62
     0
370
    -2
100
AcDbLine
 10
1451.857021674742
 20
241.1503543838594
 30
0.0
 11
1451.857021674742
 21
238.6503543838594
 31
0.0
  0
LINE
  5
1569
330
1F
100
AcDbEntity
  8
0
100
AcDbLine
 10
1528.222450424433
 20
166.6997419815304
 30
0.0
 11
1534.924518391347
 21
175.580168952009
 31
0.0
1001
ACAD
1000
DSTYLE
1002
{
1070
   147
1040
0.625
1070
    77
1070
     0
1002
}
  0
LINE
  5
156A
330
1F
100
AcDbEntity
  8
0
  6
ByBlock
 62
     0
370
    -2
100
AcDbLine
 10
1528.757139470051
 20
166.2962115728224
 30
0.0
 11
1526.716453355185
 21
164.7042538639471
 31
0.0
  0
LINE
  5
156B
330
1F
100
AcDbEntity
  8
0
  6
ByBlock
 62
     0
370
    -2
100
AcDbLine
 10
1526.716453355185
 20
164.7042538639471
 30
0.0
 11
1527.687761378814
 21
167.1032723902383
 31
0.0
  0
LINE
  5
156C
330
1F
100
AcDbEntity
  8
0
  6
ByBlock
 62
     0
370
    -2
100
AcDbLine
 10
1526.716453355185
 20
164.7042538639471
 30
0.0
 11
1528.222450424433
 21
166.6997419815304
 31
0.0
  0
LINE
  5
156D
330
1F
100
AcDbEntity
  8
0
100
AcDbLine
 10
1506.080840672382
 20
178.5501871406323
 30
0.0
 11
1533.91088896606
 21
199.0515528540312
 31
0.0
1001
ACAD
1000
DSTYLE
1002
{
1070
   147
1040
0.625
1070
    77
1070
     0
1002
}
  0
LINE
  5
156E
330
1F
100
AcDbEntity
  8
0
  6
ByBlock
 62
     0
370
    -2
100
AcDbLine
 10
1506.478145771883
 20
178.0108562364863
 30
0.0
 11
1504.068028890491
 21
177.0674232583231
 31
0.0
  0
LINE
  5
156F
330
1F
100
AcDbEntity
  8
0
  6
ByBlock
 62
     0
370
    -2
100
AcDbLine
 10
1504.068028890491
 20
177.0674232583231
 30
0.0
 11
1505.683535572881
 21
179.0895180447782
 31
0.0
  0
LINE
  5
1570
330
1F
100
AcDbEntity
  8
0
  6
ByBlock
 62
     0
370
    -2
100
AcDbLine
 10
1504.068028890491
 20
177.0674232583231
 30
0.0
 11
1506.080840672382
 21
178.5501871406323
 31
0.0
  0
LINE
  5
1571
330
1F
100
AcDbEntity
  8
0
100
AcDbLine
 10
1501.339243865707
 20
212.9130365545021
 30
0.0
 11
1532.936567986758
 21
213.0618567145114
 31
0.0
  0
LINE
  5
1572
330
1F
100
AcDbEntity
  8
0
  6
ByBlock
 62
     0
370
    -2
100
AcDbLine
 10
1501.342398861572
 20
212.2431714843146
 30
0.0
 11
1498.839271594165
 21
212.9012619411822
 31
0.0
  0
LINE
  5
1573
330
1F
100
AcDbEntity
  8
0
  6
ByBlock
 62
     0
370
    -2
100
AcDbLine
 10
1498.839271594165
 20
212.9012619411822
 30
0.0
 11
1501.336088869843
 21
213.5829016246896
 31
0.0
  0
LINE
  5
1574
330
1F
100
AcDbEntity
  8
0
  6
ByBlock
 62
     0
370
    -2
100
AcDbLine
 10
1498.839271594165
 20
212.9012619411822
 30
0.0
 11
1501.339243865707
 21
212.9130365545021
 31
0.0
  0
LINE
  5
1575
330
1F
100
AcDbEntity
  8
0
100
AcDbLine
 10
1524.894988564489
 20
174.201625898965
 30
0.0
 11
1534.841523372693
 21
186.8219217675497
 31
0.0
  0
LINE
  5
1576
330
1F
100
AcDbEntity
  8
0
  6
ByBlock
 62
     0
370
    -2
100
AcDbLine
 10
1525.421101532282
 20
173.7869762741305
 30
0.0
 11
1523.347493985914
 21
172.2381441625381
 31
0.0
  0
LINE
  5
1577
330
1F
100
AcDbEntity
  8
0
  6
ByBlock
 62
     0
370
    -2
100
AcDbLine
 10
1523.347493985914
 20
172.2381441625381
 30
0.0
 11
1524.368875596695
 21
174.6162755237995
 31
0.0
  0
LINE
  5
1578
330
1F
100
AcDbEntity
  8
0
  6
ByBlock
 62
     0
370
    -2
100
AcDbLine
 10
1523.347493985914
 20
172.2381441625381
 30
0.0
 11
1524.894988564489
 21
174.201625898965
 31
0.0
  0
TEXT
  5
1579
330
1F
100
AcDbEntity
  8
0
 62
     4
100
AcDbText
 10
1456.706441025498
 20
196.8378548830485
 30
0.0
 40
3.0
  1
308.5
 50
90.0
100
AcDbText
  0
LINE
  5
157A
330
1F
100
AcDbEntity
  8
0
  6
ByBlock
 62
     0
370
    -2
100
AcDbLine
 10
1458.001313525498
 20
166.5253553822374
 30
0.0
 11
1457.331441025498
 21
164.0253553822375
 31
0.0
  0
LINE
  5
157B
330
1F
100
AcDbEntity
  8
0
  6
ByBlock
 62
     0
370
    -2
100
AcDbLine
 10
1457.331441025498
 20
164.0253553822375
 30
0.0
 11
1456.661568525498
 21
166.5253553822374
 31
0.0
  0
LINE
  5
157C
330
1F
100
AcDbEntity
  8
0
  6
ByBlock
 62
     0
370
    -2
100
AcDbLine
 10
1457.331441025498
 20
164.0253553822375
 30
0.0
 11
1457.331441025498
 21
166.5253553822374
 31
0.0
  0
LINE
  5
157D
330
1F
100
AcDbEntity
  8
0
  6
ByBlock
 62
     0
370
    -2
100
AcDbLine
 10
1456.661568525498
 20
238.6503543838595
 30
0.0
 11
1457.331441025498
 21
241.1503543838595
 31
0.0
  0
LINE
  5
157E
330
1F
100
AcDbEntity
  8
0
  6
ByBlock
 62
     0
370
    -2
100
AcDbLine
 10
1457.331441025498
 20
241.1503543838595
 30
0.0
 11
1458.001313525498
 21
238.6503543838595
 31
0.0
  0
LINE
  5
157F
330
1F
100
AcDbEntity
  8
0
  6
ByBlock
 62
     0
370
    -2
100
AcDbLine
 10
1457.331441025498
 20
241.1503543838595
 30
0.0
 11
1457.331441025498
 21
238.6503543838595
 31
0.0
  0
TEXT
  5
1580
330
1F
100
AcDbEntity
  8
0
 62
     4
100
AcDbText
 10
1471.382729340237
 20
201.5745194289289
 30
0.0
 40
3.0
  1
251.8
 50
90.0
100
AcDbText
  0
LINE
  5
1581
330
1F
100
AcDbEntity
  8
0
  6
ByBlock
 62
     0
370
    -2
100
AcDbLine
 10
1472.677601840237
 20
180.7049238871521
 30
0.0
 11
1472.007729340237
 21
178.2049238871521
 31
0.0
  0
LINE
  5
1582
330
1F
100
AcDbEntity
  8
0
  6
ByBlock
 62
     0
370
    -2
100
AcDbLine
 10
1472.007729340237
 20
178.2049238871521
 30
0.0
 11
1471.337856840237
 21
180.7049238871521
 31
0.0
  0
LINE
  5
1583
330
1F
100
AcDbEntity
  8
0
  6
ByBlock
 62
     0
370
    -2
100
AcDbLine
 10
1472.007729340237
 20
178.2049238871521
 30
0.0
 11
1472.007729340237
 21
180.7049238871521
 31
0.0
  0
LINE
  5
1584
330
1F
100
AcDbEntity
  8
0
  6
ByBlock
 62
     0
370
    -2
100
AcDbLine
 10
1471.337856840237
 20
238.6503543838595
 30
0.0
 11
1472.007729340237
 21
241.1503543838595
 31
0.0
  0
LINE
  5
1585
330
1F
100
AcDbEntity
  8
0
  6
ByBlock
 62
     0
370
    -2
100
AcDbLine
 10
1472.007729340237
 20
241.1503543838595
 30
0.0
 11
1472.677601840237
 21
238.6503543838595
 31
0.0
  0
LINE
  5
1586
330
1F
100
AcDbEntity
  8
0
  6
ByBlock
 62
     0
370
    -2
100
AcDbLine
 10
1472.007729340237
 20
241.1503543838595
 30
0.0
 11
1472.007729340237
 21
238.6503543838595
 31
0.0
  0
TEXT
  5
1587
330
1F
100
AcDbEntity
  8
0
 62
     4
100
AcDbText
 10
1487.818028525414
 20
144.8289065798317
 30
0.0
 40
3.0
  1
\U+2205268
100
AcDbText
  0
LINE
  5
1588
330
1F
100
AcDbEntity
  8
0
  6
ByBlock
 62
     0
370
    -2
100
AcDbLine
 10
1524.318029359878
 20
144.8737790798317
 30
0.0
 11
1526.818029359878
 21
144.2039065798317
 31
0.0
  0
LINE
  5
1589
330
1F
100
AcDbEntity
  8
0
  6
ByBlock
 62
     0
370
    -2
100
AcDbLine
 10
1526.818029359878
 20
144.2039065798317
 30
0.0
 11
1524.318029359878
 21
143.5340340798317
 31
0.0
  0
LINE
  5
158A
330
1F
100
AcDbEntity
  8
0
  6
ByBlock
 62
     0
370
    -2
100
AcDbLine
 10
1526.818029359878
 20
144.2039065798317
 30
0.0
 11
1524.318029359878
 21
144.2039065798317
 31
0.0
  0
LINE
  5
158B
330
1F
100
AcDbEntity
  8
0
  6
ByBlock
 62
     0
370
    -2
100
AcDbLine
 10
1462.318027690949
 20
143.5340340798317
 30
0.0
 11
1459.818027690949
 21
144.2039065798317
 31
0.0
  0
LINE
  5
158C
330
1F
100
AcDbEntity
  8
0
  6
ByBlock
 62
     0
370
    -2
100
AcDbLine
 10
1459.818027690949
 20
144.2039065798317
 30
0.0
 11
1462.318027690949
 21
144.8737790798317
 31
0.0
  0
LINE
  5
158D
330
1F
100
AcDbEntity
  8
0
  6
ByBlock
 62
     0
370
    -2
100
AcDbLine
 10
1459.818027690949
 20
144.2039065798317
 30
0.0
 11
1462.318027690949
 21
144.2039065798317
 31
0.0
  0
LINE
  5
158E
330
1F
100
AcDbEntity
  8
0
100
AcDbLine
 10
1528.269144474872
 20
108.1328608221357
 30
0.0
 11
1533.002356836084
 21
108.9086929051057
 31
0.0
  0
LINE
  5
158F
330
1F
100
AcDbEntity
  8
0
  6
ByBlock
 62
     0
370
    -2
100
AcDbLine
 10
1528.377498921645
 20
107.4718097801422
 30
0.0
 11
1525.802066627993
 21
107.728476231138
 31
0.0
  0
LINE
  5
1590
330
1F
100
AcDbEntity
  8
0
  6
ByBlock
 62
     0
370
    -2
100
AcDbLine
 10
1525.802066627993
 20
107.728476231138
 30
0.0
 11
1528.160790028099
 21
108.7939118641292
 31
0.0
  0
LINE
  5
1591
330
1F
100
AcDbEntity
  8
0
  6
ByBlock
 62
     0
370
    -2
100
AcDbLine
 10
1525.802066627993
 20
107.728476231138
 30
0.0
 11
1528.269144474872
 21
108.1328608221357
 31
0.0
  0
LINE
  5
1592
330
1F
100
AcDbEntity
  8
0
100
AcDbLine
 10
1516.745014994851
 20
102.9458819842433
 30
0.0
 11
1533.04540980744
 21
99.48710781370079
 31
0.0
1001
ACAD
1000
DSTYLE
1002
{
1070
   341
1005
BA3
1002
}
  0
TEXT
  5
1594
330
1F
100
AcDbEntity
  8
0
 62
     4
100
AcDbText
 10
1473.98592054112
 20
252.0035645614465
 30
0.0
 40
3.0
  1
E39
100
AcDbText
  0
LINE
  5
1595
330
1F
100
AcDbEntity
  8
0
  6
ByBlock
 62
     0
370
    -2
100
AcDbLine
 10
1485.818028556292
 20
252.0484370614465
 30
0.0
 11
1488.318028556292
 21
251.3785645614465
 31
0.0
  0
LINE
  5
1596
330
1F
100
AcDbEntity
  8
0
  6
ByBlock
 62
     0
370
    -2
100
AcDbLine
 10
1488.318028556292
 20
251.3785645614465
 30
0.0
 11
1485.818028556292
 21
250.7086920614465
 31
0.0
  0
LINE
  5
1597
330
1F
100
AcDbEntity
  8
0
  6
ByBlock
 62
     0
370
    -2
100
AcDbLine
 10
1488.318028556292
 20
251.3785645614465
 30
0.0
 11
1485.818028556292
 21
251.3785645614465
 31
0.0
  0
LINE
  5
1598
330
1F
100
AcDbEntity
  8
0
  6
ByBlock
 62
     0
370
    -2
100
AcDbLine
 10
1500.818028444534
 20
250.7086920614465
 30
0.0
 11
1498.318028444534
 21
251.3785645614465
 31
0.0
  0
LINE
  5
1599
330
1F
100
AcDbEntity
  8
0
  6
ByBlock
 62
     0
370
    -2
100
AcDbLine
 10
1498.318028444534
 20
251.3785645614465
 30
0.0
 11
1500.818028444534
 21
252.0484370614465
 31
0.0
  0
LINE
  5
159A
330
1F
100
AcDbEntity
  8
0
  6
ByBlock
 62
     0
370
    -2
100
AcDbLine
 10
1498.318028444534
 20
251.3785645614465
 30
0.0
 11
1500.818028444534
 21
251.3785645614465
 31
0.0
  0
ARC
  5
159B
330
1F
100
AcDbEntity
  8
0
  6
ByBlock
 62
     0
100
AcDbCircle
 10
1516.745014994851
 20
102.9458819842433
 30
0.0
 40
0.1562499999999891
100
AcDbArc
 50
348.0201182712605
 51
168.0201182712604
  0
ARC
  5
159C
330
1F
100
AcDbEntity
  8
0
  6
ByBlock
 62
     0
100
AcDbCircle
 10
1516.745014994851
 20
102.9458819842433
 30
0.0
 40
0.1562499999999891
100
AcDbArc
 50
168.0201182712604
 51
348.0201182712605
  0
ENDSEC
  0
SECTION
  2
OBJECTS
  0
DICTIONARY
  5
C
330
0
100
AcDbDictionary
281
     1
  3
ACAD_2007HEADERVARS_RT
350
15A0
  3
ACAD_COLOR
350
73
  3
ACAD_GROUP
350
D
  3
ACAD_LAYOUT
350
1A
  3
ACAD_MATERIAL
350
72
  3
ACAD_MLEADERSTYLE
350
168
  3
ACAD_MLINESTYLE
350
17
  3
ACAD_PLOTSETTINGS
350
19
  3
ACAD_PLOTSTYLENAME
350
E
  3
ACAD_SCALELIST
350
156
  3
ACAD_TABLESTYLE
350
86
  3
ACAD_VISUALSTYLE
350
99
  3
ACDB_RECOMPOSE_DATA
350
159E
  3
AcDbVariableDictionary
350
66
  3
AEC_PROPERTY_SET_DEFS
350
F0C
  3
DWGPROPS
350
159F
  0
DICTIONARY
  5
829
330
8
100
AcDbDictionary
280
     1
281
     1
  0
DICTIONARY
  5
DD
330
2
100
AcDbDictionary
280
     1
281
     1
  3
ACAD_LAYERSTATES
360
DE
  0
DICTIONARY
  5
81D
330
10
100
AcDbDictionary
280
     1
281
     1
  3
ADSK_XREC_LAYER_RECONCILED
360
1297
  0
DICTIONARY
  5
31A
330
1F
100
AcDbDictionary
280
     1
281
     1
  3
ACAD_SORTENTS
360
31B
  0
DICTIONARY
  5
B94
330
ACA
100
AcDbDictionary
280
     1
281
     1
  3
ACAD_SORTENTS
360
B95
  0
DICTIONARY
  5
15A0
102
{ACAD_REACTORS
330
C
102
}
330
C
100
AcDbDictionary
281
     1
  3
DIMARCSYM
350
15A2
  3
DIMFXL
350
15A1
  3
DIMJOGANG
350
15A3
  0
DICTIONARY
  5
73
102
{ACAD_REACTORS
330
C
102
}
330
C
100
AcDbDictionary
281
     1
  0
DICTIONARY
  5
D
102
{ACAD_REACTORS
330
C
102
}
330
C
100
AcDbDictionary
281
     1
  0
DICTIONARY
  5
1A
102
{ACAD_REACTORS
330
C
102
}
330
C
100
AcDbDictionary
281
     1
  3
Model
350
22
  3
レイアウト1
350
59
  3
レイアウト2
350
5E
  0
DICTIONARY
  5
72
102
{ACAD_REACTORS
330
C
102
}
330
C
100
AcDbDictionary
281
     1
  3
ByBlock
350
97
  3
ByLayer
350
96
  3
Global
350
98
  0
DICTIONARY
  5
168
102
{ACAD_REACTORS
330
C
102
}
330
C
100
AcDbDictionary
281
     1
  3
Standard
350
169
  0
DICTIONARY
  5
17
102
{ACAD_REACTORS
330
C
102
}
330
C
100
AcDbDictionary
281
     1
  3
Standard
350
18
  0
DICTIONARY
  5
19
102
{ACAD_REACTORS
330
C
102
}
330
C
100
AcDbDictionary
281
     1
  0
ACDBDICTIONARYWDFLT
  5
E
102
{ACAD_REACTORS
330
C
102
}
330
C
100
AcDbDictionary
281
     1
  3
Normal
350
F
100
AcDbDictionaryWithDefault
340
F
  0
DICTIONARY
  5
156
102
{ACAD_REACTORS
330
C
102
}
330
C
100
AcDbDictionary
281
     1
  3
A0
350
157
  3
A1
350
158
  3
A2
350
159
  3
A3
350
15A
  3
A4
350
15B
  3
A5
350
15C
  3
A6
350
15D
  3
A7
350
15E
  3
A8
350
15F
  3
A9
350
160
  3
B0
350
161
  3
B1
350
162
  3
B2
350
163
  3
B3
350
164
  3
B4
350
165
  3
B5
350
166
  3
B6
350
167
  0
DICTIONARY
  5
86
102
{ACAD_REACTORS
330
C
102
}
330
C
100
AcDbDictionary
281
     1
  3
Standard
350
87
  0
DICTIONARY
  5
99
102
{ACAD_REACTORS
330
C
102
}
330
C
100
AcDbDictionary
281
     1
  3
2dWireframe
350
9F
  3
3D Hidden
350
A1
  3
3dWireframe
350
A0
  3
Basic
350
9E
  3
Brighten
350
A5
  3
ColorChange
350
A9
  3
Conceptual
350
A2
  3
Dim
350
A4
  3
EdgeColorOff
350
155
  3
Facepattern
350
A8
  3
Flat
350
9A
  3
FlatWithEdges
350
9B
  3
Gouraud
350
9C
  3
GouraudWithEdges
350
9D
  3
Hidden
350
14D
  3
JitterOff
350
153
  3
Linepattern
350
A7
  3
OverhangOff
350
154
  3
Realistic
350
A3
  3
Shaded
350
152
  3
Shaded with edges
350
151
  3
Shades of Gray
350
14E
  3
Sketchy
350
14F
  3
Thicken
350
A6
  3
Wireframe
350
14C
  3
X-Ray
350
150
  0
XRECORD
  5
159E
102
{ACAD_REACTORS
330
C
102
}
330
C
100
AcDbXrecord
280
     1
 90
        1
330
87
  0
DICTIONARY
  5
66
102
{ACAD_REACTORS
330
C
102
}
330
C
100
AcDbDictionary
281
     1
  3
CANNOSCALE
350
245
  3
CMLEADERSTYLE
350
243
  3
CTABLESTYLE
350
89
  3
DIMASSOC
350
67
  3
HIDETEXT
350
6B
  3
INDEXCTL
350
870
  3
LAYEREVAL
350
247
  3
LAYERNOTIFY
350
248
  3
LIGHTINGUNITS
350
246
  3
MSLTSCALE
350
244
  3
SORTENTS
350
86F
  3
XCLIPFRAME
350
14B2
  0
DICTIONARY
  5
F0C
102
{ACAD_REACTORS
330
C
102
}
330
C
100
AcDbDictionary
281
     1
  0
XRECORD
  5
159F
102
{ACAD_REACTORS
330
C
102
}
330
C
100
AcDbXrecord
280
     1
  1
DWGPROPS COOKIE
  2

  3

  4

  6

  7

  8
imamura
  9

300
=
301
=
302
=
303
=
304
=
305
=
306
=
307
=
308
=
309
=
 40
0.0053390856481481
 41
2459509.75832007
 42
2459562.723161054
  1

 90
        0
  0
DICTIONARY
  5
DE
102
{ACAD_REACTORS
330
DD
102
}
330
DD
100
AcDbDictionary
281
     1
  0
XRECORD
  5
1297
102
{ACAD_REACTORS
330
81D
102
}
330
81D
100
AcDbXrecord
280
     1
290
     1
  0
SORTENTSTABLE
  5
31B
102
{ACAD_REACTORS
330
31A
102
}
330
31A
100
AcDbSortentsTable
330
1F
331
F7F
  5
F7F
331
116D
  5
11EE
331
112E
  5
11AF
331
1577
  5
157B
331
10F7
  5
1178
331
F3C
  5
F3C
331
F7B
  5
F7B
331
1169
  5
11EA
331
112A
  5
11AB
331
1573
  5
157F
331
10F3
  5
1174
331
10B4
  5
1135
331
121E
  5
1567
331
11E7
  5
1525
331
153C
  5
1017
331
F38
  5
F38
331
F77
  5
F77
331
F73
  5
F73
331
1165
  5
11E6
331
1126
  5
11A7
331
156F
  5
1589
331
10EF
  5
1170
331
10B0
  5
1131
331
14F9
  5
1595
331
121A
  5
1563
331
11E3
  5
1521
331
11A4
  5
1225
331
1538
  5
1013
331
F34
  5
F34
331
1161
  5
11E2
331
1122
  5
11A3
331
156B
  5
158F
331
10EB
  5
116C
331
10AC
  5
112D
331
14F5
  5
1593
331
1216
  5
155C
331
11DF
  5
151D
331
11A0
  5
1221
331
1534
  5
100F
331
F30
  5
F30
331
10A8
  5
1129
331
1212
  5
1554
331
11DB
  5
1519
331
119C
  5
121D
331
1530
  5
100B
331
1198
  5
1219
331
107D
  5
10FE
331
1036
  5
1089
331
FF7
  5
FF7
331
1079
  5
10FA
331
1032
  5
1085
331
FB4
  5
FB4
331
FF3
  5
FF3
331
106D
  5
10C4
331
102E
  5
1081
331
FEF
  5
FEF
331
123A
  5
158C
331
FB0
  5
FB0
331
1069
  5
10C0
331
102A
  5
107D
331
FAC
  5
FAC
331
FEB
  5
FEB
331
FA8
  5
FA8
331
F6F
  5
F6F
331
115D
  5
11DE
331
10E7
  5
1168
331
F6B
  5
F6B
331
FA6
  5
FA6
331
1159
  5
11DA
331
10E3
  5
1164
331
11D7
  5
1515
331
152C
  5
1007
331
F67
  5
F67
331
FA2
  5
FA2
331
1194
  5
1215
331
1155
  5
11D6
331
111E
  5
119F
331
1567
  5
1597
331
10DF
  5
1160
331
11D3
  5
1511
331
1528
  5
1003
331
F2C
  5
F2C
331
F63
  5
F63
331
1190
  5
1211
331
1151
  5
11D2
331
111A
  5
119B
331
1563
  5
1599
331
10DB
  5
115C
331
159A
  5
1070
331
120E
  5
1550
331
11CF
  5
150D
331
1524
  5
FFF
331
F28
  5
F28
331
120A
  5
1548
331
11CB
  5
1509
331
1065
  5
10B8
331
FE7
  5
FE7
331
1061
  5
10B4
331
FE3
  5
FE3
331
10A4
  5
1125
331
105D
  5
10B0
331
101E
  5
105E
331
FDF
  5
FDF
331
10A0
  5
1121
331
1059
  5
10AC
331
101A
  5
105A
331
FDB
  5
FDB
331
F5F
  5
F5F
331
F9E
  5
F9E
331
118C
  5
120D
331
114D
  5
11CE
331
1116
  5
1197
331
10D7
  5
1158
331
1596
  5
1072
331
155F
  5
103B
331
F24
  5
F24
331
F5B
  5
F5B
331
F9A
  5
F9A
331
1188
  5
1209
331
1149
  5
11CA
331
1112
  5
1193
331
10D3
  5
1154
331
1592
  5
10CB
331
1206
  5
1544
331
11C7
  5
1505
331
151C
  5
1065
331
155B
  5
1037
331
F20
  5
F20
331
F57
  5
F57
331
F96
  5
F96
331
F92
  5
F92
331
1184
  5
1205
331
1145
  5
11C6
331
110E
  5
118F
331
10CF
  5
1150
331
158E
  5
10D5
331
1202
  5
1540
331
11C3
  5
1501
331
1557
  5
1033
331
F1C
  5
F1C
331
F53
  5
F53
331
1180
  5
1201
331
1141
  5
11C2
331
110A
  5
118B
331
10CB
  5
114C
331
158A
  5
10E2
331
1235
  5
1584
331
11FE
  5
153C
331
11BF
  5
14FD
331
1553
  5
102F
331
F18
  5
F18
331
11FA
  5
1538
331
11BB
  5
14F9
331
109C
  5
111D
331
1055
  5
10A8
331
1016
  5
1056
331
FD7
  5
FD7
331
1098
  5
1119
331
1051
  5
10A4
331
1012
  5
1052
331
FD3
  5
FD3
331
1094
  5
1115
331
104D
  5
10A0
331
100E
  5
104E
331
FCF
  5
FCF
331
1090
  5
1111
331
1049
  5
109C
331
100A
  5
104A
331
FCB
  5
FCB
331
1070
  5
10D6
331
F4F
  5
F4F
331
F8E
  5
F8E
331
117C
  5
11FD
331
113D
  5
11BE
331
1106
  5
1187
331
10C7
  5
1148
331
1586
  5
10EA
331
154F
  5
102B
331
F14
  5
F14
331
F4B
  5
F4B
331
F8A
  5
F8A
331
1178
  5
11F9
331
1139
  5
11BA
331
1102
  5
1183
331
10C3
  5
1144
331
1582
  5
10EC
331
122D
  5
1576
331
150C
  5
10E6
331
11F6
  5
1534
331
11B7
  5
123B
331
154B
  5
1027
331
F10
  5
F10
331
F47
  5
F47
331
F86
  5
F86
331
F82
  5
F82
331
1174
  5
11F5
331
1135
  5
11B6
331
10FE
  5
117F
331
10BF
  5
1140
331
157E
  5
10F3
331
1229
  5
1572
331
11F2
  5
1530
331
11B3
  5
1236
331
1547
  5
1022
331
F43
  5
F43
331
1170
  5
11F1
331
1131
  5
11B2
331
10FA
  5
117B
331
10BB
  5
113C
331
157A
  5
10F5
331
1225
  5
156E
331
11EE
  5
152C
331
11AF
  5
1230
331
1543
  5
101E
331
1221
  5
156A
331
11EA
  5
1528
331
11AB
  5
122C
331
108C
  5
110D
331
1045
  5
1098
331
1006
  5
1046
331
FC7
  5
FC7
331
1088
  5
1109
331
1041
  5
1094
331
1002
  5
1042
331
FC3
  5
FC3
331
1084
  5
1105
331
103D
  5
1090
331
FFE
  5
103E
331
1020
  5
1060
331
FBF
  5
FBF
331
1080
  5
1101
331
1039
  5
108C
331
FBB
  5
FBB
331
FFA
  5
FFA
331
F3F
  5
F3F
331
F7E
  5
F7E
331
116C
  5
11ED
331
112D
  5
11AE
331
1576
  5
157A
331
10F6
  5
1177
331
10B7
  5
1138
331
153F
  5
101A
331
F3B
  5
F3B
331
F7A
  5
F7A
331
1168
  5
11E9
331
1129
  5
11AA
331
1572
  5
157E
331
10F2
  5
1173
331
10B3
  5
1134
331
121D
  5
1566
331
11E6
  5
1524
331
11A7
  5
1228
331
153B
  5
1016
331
F37
  5
F37
331
F76
  5
F76
331
F72
  5
F72
331
1164
  5
11E5
331
1125
  5
11A6
331
156E
  5
1588
331
10EE
  5
116F
331
10AF
  5
1130
331
14F8
  5
1594
331
1219
  5
1562
331
11E2
  5
1520
331
11A3
  5
1224
331
1537
  5
1012
331
F33
  5
F33
331
1160
  5
11E1
331
1121
  5
11A2
331
156A
  5
158E
331
10EA
  5
116B
331
10AB
  5
112C
331
1215
  5
155B
331
11DE
  5
151C
331
119F
  5
1220
331
1533
  5
100E
331
1211
  5
1553
331
11DA
  5
1518
331
119B
  5
121C
331
107C
  5
10FD
331
1035
  5
1088
331
FB7
  5
FB7
331
FF6
  5
FF6
331
1078
  5
10F9
331
1031
  5
1084
331
123D
  5
1592
331
FB3
  5
FB3
331
FF2
  5
FF2
331
106C
  5
10C3
331
102D
  5
1080
331
FEE
  5
FEE
331
FAF
  5
FAF
331
1068
  5
10BF
331
1029
  5
107C
331
FAB
  5
FAB
331
FEA
  5
FEA
331
F6E
  5
F6E
331
115C
  5
11DD
331
10E6
  5
1167
331
152F
  5
100A
331
F6A
  5
F6A
331
FA5
  5
FA5
331
1197
  5
1218
331
1158
  5
11D9
331
10E2
  5
1163
331
11D6
  5
1514
331
152B
  5
1006
331
F2F
  5
F2F
331
F66
  5
F66
331
1193
  5
1214
331
F62
  5
F62
331
FA1
  5
FA1
331
1154
  5
11D5
331
111D
  5
119E
331
1566
  5
1596
331
10DE
  5
115F
331
11D2
  5
1510
331
1527
  5
1002
331
F2B
  5
F2B
331
1150
  5
11D1
331
1119
  5
119A
331
1562
  5
159C
331
10DA
  5
115B
331
1599
  5
106D
331
120D
  5
154F
331
11CE
  5
150C
331
1523
  5
FFE
331
1209
  5
1547
331
11CA
  5
1508
331
1064
  5
10B7
331
FE6
  5
FE6
331
10A7
  5
1128
331
1060
  5
10B3
331
FE2
  5
FE2
331
10A3
  5
1124
331
105C
  5
10AF
331
101D
  5
105D
331
FDE
  5
FDE
331
1058
  5
10AB
331
1019
  5
1059
331
FDA
  5
FDA
331
118F
  5
1210
331
F5E
  5
F5E
331
F9D
  5
F9D
331
F27
  5
F27
331
118B
  5
120C
331
114C
  5
11CD
331
1115
  5
1196
331
10D6
  5
1157
331
1595
  5
1071
331
151F
  5
1068
331
155E
  5
103A
331
F23
  5
F23
331
F5A
  5
F5A
331
F99
  5
F99
331
F95
  5
F95
331
1187
  5
1208
331
1148
  5
11C9
331
1111
  5
1192
331
10D2
  5
1153
331
1591
  5
10D1
331
1205
  5
1543
331
11C6
  5
1504
331
151B
  5
1064
331
155A
  5
1036
331
F1F
  5
F1F
331
F56
  5
F56
331
F91
  5
F91
331
1183
  5
1204
331
1144
  5
11C5
331
110D
  5
118E
331
10CE
  5
114F
331
158D
  5
10DF
331
1201
  5
153F
331
11C2
  5
1500
331
1556
  5
1032
331
F1B
  5
F1B
331
F52
  5
F52
331
1140
  5
11C1
331
1109
  5
118A
331
10CA
  5
114B
331
1589
  5
10E1
331
1234
  5
1583
331
1513
  5
10DC
331
11FD
  5
153B
331
11BE
  5
14FC
331
1552
  5
102E
331
1230
  5
1579
331
11F9
  5
1537
331
11BA
  5
14F8
331
109F
  5
1120
331
109B
  5
111C
331
1054
  5
10A7
331
1015
  5
1055
331
FD6
  5
FD6
331
1097
  5
1118
331
1050
  5
10A3
331
1011
  5
1051
331
FD2
  5
FD2
331
1093
  5
1114
331
104C
  5
109F
331
100D
  5
104D
331
FCE
  5
FCE
331
1048
  5
109B
331
1009
  5
1049
331
1073
  5
10D9
331
FCA
  5
FCA
331
117F
  5
1200
331
F4E
  5
F4E
331
F8D
  5
F8D
331
F17
  5
F17
331
117B
  5
11FC
331
113C
  5
11BD
331
1105
  5
1186
331
10C6
  5
1147
331
1585
  5
10E9
331
154E
  5
102A
331
F13
  5
F13
331
F4A
  5
F4A
331
F89
  5
F89
331
1177
  5
11F8
331
1138
  5
11B9
331
1101
  5
1182
331
10C2
  5
1143
331
1581
  5
10EB
331
122C
  5
1575
331
150B
  5
10E5
331
11F5
  5
1533
331
11B6
  5
123A
331
154A
  5
1026
331
F46
  5
F46
331
F85
  5
F85
331
F81
  5
F81
331
1173
  5
11F4
331
1134
  5
11B5
331
10FD
  5
117E
331
10BE
  5
113F
331
157D
  5
10F2
331
1228
  5
1571
331
1507
  5
10F1
331
11F1
  5
152F
331
11B2
  5
1235
331
1546
  5
1021
331
F42
  5
F42
331
1130
  5
11B1
331
10F9
  5
117A
331
10BA
  5
113B
331
1579
  5
10F8
331
1224
  5
156D
331
11ED
  5
152B
331
11AE
  5
122F
331
1542
  5
101D
331
1220
  5
1569
331
11E9
  5
1527
331
11AA
  5
122B
331
108F
  5
1110
331
108B
  5
110C
331
1044
  5
1097
331
1005
  5
1045
331
1027
  5
107A
331
FC6
  5
FC6
331
1087
  5
1108
331
1040
  5
1093
331
1001
  5
1041
331
1023
  5
1063
331
FC2
  5
FC2
331
1083
  5
1104
331
103C
  5
108F
331
FBE
  5
FBE
331
1038
  5
108B
331
FBA
  5
FBA
331
FF9
  5
FF9
331
116F
  5
11F0
331
F3E
  5
F3E
331
F7D
  5
F7D
331
116B
  5
11EC
331
112C
  5
11AD
331
1575
  5
157D
331
10F5
  5
1176
331
10B6
  5
1137
331
153E
  5
1019
331
F3A
  5
F3A
331
F79
  5
F79
331
1167
  5
11E8
331
1128
  5
11A9
331
1571
  5
1581
331
10F1
  5
1172
331
10B2
  5
1133
331
121C
  5
1565
331
11E5
  5
1523
331
11A6
  5
1227
331
153A
  5
1015
331
F36
  5
F36
331
F75
  5
F75
331
F71
  5
F71
331
1163
  5
11E4
331
1124
  5
11A5
331
156D
  5
158B
331
10ED
  5
116E
331
10AE
  5
112F
331
1218
  5
155E
331
11E1
  5
151F
331
11A2
  5
1223
331
1536
  5
1011
331
F32
  5
F32
331
1120
  5
11A1
331
1569
  5
1591
331
10E9
  5
116A
331
10AA
  5
112B
331
1214
  5
1558
331
11DD
  5
151B
331
119E
  5
121F
331
1532
  5
100D
331
1210
  5
1552
331
11D9
  5
1517
331
119A
  5
121B
331
107F
  5
1100
331
107B
  5
10FC
331
1034
  5
1087
331
FB6
  5
FB6
331
FF5
  5
FF5
331
1030
  5
1083
331
FB2
  5
FB2
331
FF1
  5
FF1
331
106B
  5
10C2
331
102C
  5
107F
331
FED
  5
FED
331
1238
  5
1587
331
FAE
  5
FAE
331
1028
  5
107B
331
FAA
  5
FAA
331
FE9
  5
FE9
331
115F
  5
11E0
331
F6D
  5
F6D
331
115B
  5
11DC
331
10E5
  5
1166
331
152E
  5
1009
331
F69
  5
F69
331
FA4
  5
FA4
331
1196
  5
1217
331
1157
  5
11D8
331
10E1
  5
1162
331
11D5
  5
1513
331
152A
  5
1005
331
F2E
  5
F2E
331
F65
  5
F65
331
1192
  5
1213
331
F61
  5
F61
331
FA0
  5
FA0
331
1153
  5
11D4
331
111C
  5
119D
331
1565
  5
159B
331
10DD
  5
115E
331
159C
  5
10CA
331
11D1
  5
150F
331
1526
  5
1001
331
F2A
  5
F2A
331
1118
  5
1199
331
10D9
  5
115A
331
1598
  5
106C
331
120C
  5
154A
331
11CD
  5
150B
331
1561
  5
103D
331
1208
  5
1546
331
11C9
  5
1507
331
1067
  5
10BE
331
1063
  5
10B6
331
FE5
  5
FE5
331
10A6
  5
1127
331
105F
  5
10B2
331
FE1
  5
FE1
331
10A2
  5
1123
331
105B
  5
10AE
331
101C
  5
105C
331
FDD
  5
FDD
331
1018
  5
1058
331
FD9
  5
FD9
331
118E
  5
120F
331
114F
  5
11D0
331
F26
  5
F26
331
F5D
  5
F5D
331
F9C
  5
F9C
331
118A
  5
120B
331
114B
  5
11CC
331
1114
  5
1195
331
10D5
  5
1156
331
1594
  5
1075
331
151E
  5
1067
331
155D
  5
1039
331
F22
  5
F22
331
F59
  5
F59
331
F98
  5
F98
331
F94
  5
F94
331
1186
  5
1207
331
1147
  5
11C8
331
1110
  5
1191
331
10D1
  5
1152
331
1590
  5
10D0
331
1204
  5
1542
331
11C5
  5
1503
331
1559
  5
1035
331
F1E
  5
F1E
331
F55
  5
F55
331
1182
  5
1203
331
F51
  5
F51
331
F90
  5
F90
331
1143
  5
11C4
331
110C
  5
118D
331
10CD
  5
114E
331
158C
  5
10DE
331
1237
  5
1586
331
1200
  5
153E
331
11C1
  5
14FF
331
1555
  5
1031
331
F1A
  5
F1A
331
1108
  5
1189
331
10C9
  5
114A
331
1588
  5
10E0
331
1233
  5
1582
331
1512
  5
10DB
331
11FC
  5
153A
331
11BD
  5
14FB
331
1551
  5
102D
331
11F8
  5
1536
331
11B9
  5
14F5
331
109E
  5
111F
331
1057
  5
10AA
331
109A
  5
111B
331
1053
  5
10A6
331
1014
  5
1054
331
FD5
  5
FD5
331
1096
  5
1117
331
104F
  5
10A2
331
1010
  5
1050
331
FD1
  5
FD1
331
1092
  5
1113
331
104B
  5
109E
331
100C
  5
104C
331
FCD
  5
FCD
331
1008
  5
1048
331
1072
  5
10D8
331
FC9
  5
FC9
331
117E
  5
11FF
331
F4D
  5
F4D
331
F8C
  5
F8C
331
113F
  5
11C0
331
F16
  5
F16
331
117A
  5
11FB
331
113B
  5
11BC
331
1104
  5
1185
331
10C5
  5
1146
331
1584
  5
10E8
331
122F
  5
1578
331
154D
  5
1029
331
F12
  5
F12
331
F49
  5
F49
331
F88
  5
F88
331
F84
  5
F84
331
1176
  5
11F7
331
1137
  5
11B8
331
1100
  5
1181
331
10C1
  5
1142
331
1580
  5
10EE
331
122B
  5
1574
331
11F4
  5
1532
331
11B5
  5
1238
331
1549
  5
1025
331
F45
  5
F45
331
F80
  5
F80
331
1172
  5
11F3
331
1133
  5
11B4
331
10FC
  5
117D
331
10BD
  5
113E
331
157C
  5
10F7
331
1227
  5
1570
331
1506
  5
10F0
331
11F0
  5
152E
331
11B1
  5
1234
331
1545
  5
1020
331
F41
  5
F41
331
1578
  5
157C
331
10F8
  5
1179
331
10B9
  5
113A
331
1223
  5
156C
331
11EC
  5
152A
331
11AD
  5
122E
331
1541
  5
101C
331
11E8
  5
1526
331
11A9
  5
122A
331
108E
  5
110F
331
1047
  5
109A
331
108A
  5
110B
331
1043
  5
1096
331
1004
  5
1044
331
1026
  5
1079
331
FC5
  5
FC5
331
1086
  5
1107
331
103F
  5
1092
331
1000
  5
1040
331
1022
  5
1062
331
FC1
  5
FC1
331
1082
  5
1103
331
103B
  5
108E
331
FBD
  5
FBD
331
FFC
  5
FFC
331
FB9
  5
FB9
331
FF8
  5
FF8
331
116E
  5
11EF
331
112F
  5
11B0
331
F3D
  5
F3D
331
F7C
  5
F7C
331
116A
  5
11EB
331
112B
  5
11AC
331
1574
  5
1580
331
10F4
  5
1175
331
10B5
  5
1136
331
121F
  5
1568
331
153D
  5
1018
331
F39
  5
F39
331
F78
  5
F78
331
1166
  5
11E7
331
1127
  5
11A8
331
1570
  5
158A
331
10F0
  5
1171
331
10B1
  5
1132
331
121B
  5
1564
331
11E4
  5
1522
331
11A5
  5
1226
331
1539
  5
1014
331
F35
  5
F35
331
F74
  5
F74
331
F70
  5
F70
331
1162
  5
11E3
331
1123
  5
11A4
331
156C
  5
1590
331
10EC
  5
116D
331
10AD
  5
112E
331
1217
  5
155D
331
11E0
  5
151E
331
11A1
  5
1222
331
1535
  5
1010
331
F31
  5
F31
331
1568
  5
1598
331
10E8
  5
1169
331
10A9
  5
112A
331
1213
  5
1557
331
11DC
  5
151A
331
119D
  5
121E
331
1531
  5
100C
331
11D8
  5
1516
331
1199
  5
121A
331
107E
  5
10FF
331
1037
  5
108A
331
107A
  5
10FB
331
1033
  5
1086
331
FB5
  5
FB5
331
FF4
  5
FF4
331
102F
  5
1082
331
FF0
  5
FF0
331
123B
  5
158D
331
FB1
  5
FB1
331
106A
  5
10C1
331
102B
  5
107E
331
FEC
  5
FEC
331
FAD
  5
FAD
331
FA9
  5
FA9
331
FE8
  5
FE8
331
115E
  5
11DF
331
F6C
  5
F6C
331
115A
  5
11DB
331
10E4
  5
1165
331
152D
  5
1008
331
F68
  5
F68
331
FA7
  5
FA7
331
FA3
  5
FA3
331
1195
  5
1216
331
1156
  5
11D7
331
111F
  5
11A0
331
10E0
  5
1161
331
11D4
  5
1512
331
1529
  5
1004
331
F2D
  5
F2D
331
F64
  5
F64
331
1191
  5
1212
331
F60
  5
F60
331
1152
  5
11D3
331
111B
  5
119C
331
1564
  5
159A
331
10DC
  5
115D
331
159B
  5
10C9
331
120F
  5
1551
331
11D0
  5
150E
331
1525
  5
1000
331
F29
  5
F29
331
10D8
  5
1159
331
120B
  5
1549
331
11CC
  5
150A
331
1560
  5
103C
331
11C8
  5
1506
331
1066
  5
10B9
331
1062
  5
10B5
331
FE4
  5
FE4
331
10A5
  5
1126
331
105E
  5
10B1
331
101F
  5
105F
331
FE0
  5
FE0
331
10A1
  5
1122
331
105A
  5
10AD
331
101B
  5
105B
331
FDC
  5
FDC
331
FD8
  5
FD8
331
F9F
  5
F9F
331
118D
  5
120E
331
114E
  5
11CF
331
1117
  5
1198
331
1597
  5
1073
331
F25
  5
F25
331
F5C
  5
F5C
331
F9B
  5
F9B
331
1189
  5
120A
331
114A
  5
11CB
331
1113
  5
1194
331
10D4
  5
1155
331
1207
  5
1545
331
151D
  5
1066
331
155C
  5
1038
331
F21
  5
F21
331
F58
  5
F58
331
F97
  5
F97
331
F93
  5
F93
331
1185
  5
1206
331
1146
  5
11C7
331
110F
  5
1190
331
10D0
  5
1151
331
158F
  5
10CF
331
1203
  5
1541
331
11C4
  5
1502
331
1558
  5
1034
331
F1D
  5
F1D
331
F54
  5
F54
331
1181
  5
1202
331
F50
  5
F50
331
1142
  5
11C3
331
110B
  5
118C
331
10CC
  5
114D
331
158B
  5
10DD
331
1236
  5
1585
331
11FF
  5
153D
331
11C0
  5
14FE
331
1554
  5
1030
331
F19
  5
F19
331
10C8
  5
1149
331
11FB
  5
1539
331
1511
  5
10DA
331
11BC
  5
14FA
331
1550
  5
102C
331
11B8
  5
123D
331
109D
  5
111E
331
1056
  5
10A9
331
1017
  5
1057
331
1099
  5
111A
331
1052
  5
10A5
331
1013
  5
1053
331
FD4
  5
FD4
331
1095
  5
1116
331
104E
  5
10A1
331
100F
  5
104F
331
FD0
  5
FD0
331
1091
  5
1112
331
104A
  5
109D
331
100B
  5
104B
331
1075
  5
10E4
331
FCC
  5
FCC
331
1071
  5
10D7
331
FC8
  5
FC8
331
F8F
  5
F8F
331
117D
  5
11FE
331
113E
  5
11BF
331
1107
  5
1188
331
1587
  5
10E3
331
F15
  5
F15
331
F4C
  5
F4C
331
F8B
  5
F8B
331
1179
  5
11FA
331
113A
  5
11BB
331
1103
  5
1184
331
10C4
  5
1145
331
1583
  5
10ED
331
122E
  5
1577
331
150D
  5
10E7
331
11F7
  5
1535
331
154C
  5
1028
331
F11
  5
F11
331
F48
  5
F48
331
F87
  5
F87
331
F83
  5
F83
331
1175
  5
11F6
331
1136
  5
11B7
331
10FF
  5
1180
331
10C0
  5
1141
331
157F
  5
10F4
331
122A
  5
1573
331
11F3
  5
1531
331
11B4
  5
1237
331
1548
  5
1023
331
F44
  5
F44
331
1171
  5
11F2
331
1132
  5
11B3
331
10FB
  5
117C
331
10BC
  5
113D
331
157B
  5
10F6
331
1226
  5
156F
331
1505
  5
10EF
331
11EF
  5
152D
331
11B0
  5
1233
331
1544
  5
101F
331
F40
  5
F40
331
10B8
  5
1139
331
1222
  5
156B
331
11EB
  5
1529
331
11AC
  5
122D
331
1540
  5
101B
331
11A8
  5
1229
331
108D
  5
110E
331
1046
  5
1099
331
1007
  5
1047
331
1089
  5
110A
331
1042
  5
1095
331
1003
  5
1043
331
1025
  5
1078
331
FC4
  5
FC4
331
1085
  5
1106
331
103E
  5
1091
331
FFF
  5
103F
331
1021
  5
1061
331
FC0
  5
FC0
331
1081
  5
1102
331
103A
  5
108D
331
FBC
  5
FBC
331
FFB
  5
FFB
331
FB8
  5
FB8
  0
SORTENTSTABLE
  5
B95
102
{ACAD_REACTORS
330
B94
102
}
330
B94
100
AcDbSortentsTable
330
ACA
  0
XRECORD
  5
15A2
102
{ACAD_REACTORS
330
15A0
102
}
330
15A0
100
AcDbXrecord
280
     1
 70
     2
  0
XRECORD
  5
15A1
102
{ACAD_REACTORS
330
15A0
102
}
330
15A0
100
AcDbXrecord
280
     1
 40
1.25
  0
XRECORD
  5
15A3
102
{ACAD_REACTORS
330
15A0
102
}
330
15A0
100
AcDbXrecord
280
     1
 40
1.570796326794896
  0
LAYOUT
  5
22
102
{ACAD_XDICTIONARY
360
15A4
102
}
102
{ACAD_REACTORS
330
1A
102
}
330
1A
100
AcDbPlotSettings
  1

  2
none_device
  4
ANSI_A_(8.50_x_11.00_Inches)
  6

 40
6.349999904632567
 41
19.04999923706055
 42
6.350006103515625
 43
19.04998779296875
 44
215.8999938964844
 45
279.3999938964844
 46
0.0
 47
0.0
 48
0.0
 49
0.0
140
0.0
141
0.0
142
1.0
143
2.584895464708373
 70
 11952
 72
     0
 73
     1
 74
     0
  7

 75
     0
147
0.3868628397755418
148
0.0
149
0.0
100
AcDbLayout
  1
Model
 70
     1
 71
     0
 10
0.0
 20
0.0
 11
12.0
 21
9.0
 12
0.0
 22
0.0
 32
0.0
 14
0.0
 24
0.0
 34
0.0
 15
0.0
 25
0.0
 35
0.0
146
0.0
 13
0.0
 23
0.0
 33
0.0
 16
1.0
 26
0.0
 36
0.0
 17
0.0
 27
1.0
 37
0.0
 76
     0
330
1F
331
94
  0
LAYOUT
  5
59
102
{ACAD_XDICTIONARY
360
15A6
102
}
102
{ACAD_REACTORS
330
1A
102
}
330
1A
100
AcDbPlotSettings
  1

  2
None
  4

  6

 40
0.0
 41
0.0
 42
0.0
 43
0.0
 44
0.0
 45
0.0
 46
0.0
 47
0.0
 48
0.0
 49
0.0
140
0.0
141
0.0
142
1.0
143
1.0
 70
   688
 72
     0
 73
     0
 74
     5
  7

 75
    16
147
1.0
148
0.0
149
0.0
100
AcDbLayout
  1
レイアウト1
 70
     1
 71
     1
 10
0.0
 20
0.0
 11
12.0
 21
9.0
 12
0.0
 22
0.0
 32
0.0
 14
0.0
 24
0.0
 34
0.0
 15
0.0
 25
0.0
 35
0.0
146
0.0
 13
0.0
 23
0.0
 33
0.0
 16
1.0
 26
0.0
 36
0.0
 17
0.0
 27
1.0
 37
0.0
 76
     0
330
58
  0
LAYOUT
  5
5E
102
{ACAD_XDICTIONARY
360
15A8
102
}
102
{ACAD_REACTORS
330
1A
102
}
330
1A
100
AcDbPlotSettings
  1

  2
None
  4

  6

 40
0.0
 41
0.0
 42
0.0
 43
0.0
 44
0.0
 45
0.0
 46
0.0
 47
0.0
 48
0.0
 49
0.0
140
0.0
141
0.0
142
1.0
143
1.0
 70
   688
 72
     0
 73
     0
 74
     5
  7

 75
    16
147
1.0
148
0.0
149
0.0
100
AcDbLayout
  1
レイアウト2
 70
     1
 71
     2
 10
0.0
 20
0.0
 11
12.0
 21
9.0
 12
0.0
 22
0.0
 32
0.0
 14
0.0
 24
0.0
 34
0.0
 15
0.0
 25
0.0
 35
0.0
146
0.0
 13
0.0
 23
0.0
 33
0.0
 16
1.0
 26
0.0
 36
0.0
 17
0.0
 27
1.0
 37
0.0
 76
     0
330
5D
  0
MATERIAL
  5
97
102
{ACAD_XDICTIONARY
360
13D2
102
}
102
{ACAD_REACTORS
330
72
102
}
330
72
100
AcDbMaterial
  1
ByBlock
 73
     1
 78
     1
172
     1
176
     1
270
     1
274
     1
  0
MATERIAL
  5
96
102
{ACAD_XDICTIONARY
360
13D0
102
}
102
{ACAD_REACTORS
330
72
102
}
330
72
100
AcDbMaterial
  1
ByLayer
 73
     1
 78
     1
172
     1
176
     1
270
     1
274
     1
  0
MATERIAL
  5
98
102
{ACAD_XDICTIONARY
360
13D4
102
}
102
{ACAD_REACTORS
330
72
102
}
330
72
100
AcDbMaterial
  1
Global
 73
     1
 78
     1
172
     1
176
     1
270
     1
274
     1
  0
MLEADERSTYLE
  5
169
102
{ACAD_REACTORS
330
168
102
}
330
168
100
AcDbMLeaderStyle
170
     2
171
     1
172
     0
 90
        2
 40
0.0
 41
0.0
173
     1
 91
-1056964608
340
14
 92
       -2
290
     1
 42
2.0
291
     1
 43
0.36
  3
Standard
 44
4.0
300

342
11
174
     1
178
     6
175
     1
176
     0
 93
-1056964608
 45
4.0
292
     0
297
     0
 46
4.0
 94
-1056964608
 47
1.0
 49
1.0
140
1.0
293
     1
141
0.0
294
     1
177
     0
142
1.0
295
     0
296
     0
143
0.125
1001
ACAD_MLEADERVER
1070
     2
  0
MLINESTYLE
  5
18
102
{ACAD_REACTORS
330
17
102
}
330
17
100
AcDbMlineStyle
  2
STANDARD
 70
     0
  3

 62
   256
 51
90.0
 52
90.0
 71
     2
 49
0.5
 62
   256
  6
BYLAYER
 49
-0.5
 62
   256
  6
BYLAYER
  0
ACDBPLACEHOLDER
  5
F
102
{ACAD_REACTORS
330
E
102
}
330
E
  0
SCALE
  5
157
102
{ACAD_REACTORS
330
156
102
}
330
156
100
AcDbScale
 70
     0
300
1:1
140
1.0
141
1.0
290
     1
  0
SCALE
  5
158
102
{ACAD_REACTORS
330
156
102
}
330
156
100
AcDbScale
 70
     0
300
1:2
140
1.0
141
2.0
290
     0
  0
SCALE
  5
159
102
{ACAD_REACTORS
330
156
102
}
330
156
100
AcDbScale
 70
     0
300
1:4
140
1.0
141
4.0
290
     0
  0
SCALE
  5
15A
102
{ACAD_REACTORS
330
156
102
}
330
156
100
AcDbScale
 70
     0
300
1:5
140
1.0
141
5.0
290
     0
  0
SCALE
  5
15B
102
{ACAD_REACTORS
330
156
102
}
330
156
100
AcDbScale
 70
     0
300
1:8
140
1.0
141
8.0
290
     0
  0
SCALE
  5
15C
102
{ACAD_REACTORS
330
156
102
}
330
156
100
AcDbScale
 70
     0
300
1:10
140
1.0
141
10.0
290
     0
  0
SCALE
  5
15D
102
{ACAD_REACTORS
330
156
102
}
330
156
100
AcDbScale
 70
     0
300
1:16
140
1.0
141
16.0
290
     0
  0
SCALE
  5
15E
102
{ACAD_REACTORS
330
156
102
}
330
156
100
AcDbScale
 70
     0
300
1:20
140
1.0
141
20.0
290
     0
  0
SCALE
  5
15F
102
{ACAD_REACTORS
330
156
102
}
330
156
100
AcDbScale
 70
     0
300
1:30
140
1.0
141
30.0
290
     0
  0
SCALE
  5
160
102
{ACAD_REACTORS
330
156
102
}
330
156
100
AcDbScale
 70
     0
300
1:40
140
1.0
141
40.0
290
     0
  0
SCALE
  5
161
102
{ACAD_REACTORS
330
156
102
}
330
156
100
AcDbScale
 70
     0
300
1:50
140
1.0
141
50.0
290
     0
  0
SCALE
  5
162
102
{ACAD_REACTORS
330
156
102
}
330
156
100
AcDbScale
 70
     0
300
1:100
140
1.0
141
100.0
290
     0
  0
SCALE
  5
163
102
{ACAD_REACTORS
330
156
102
}
330
156
100
AcDbScale
 70
     0
300
2:1
140
2.0
141
1.0
290
     0
  0
SCALE
  5
164
102
{ACAD_REACTORS
330
156
102
}
330
156
100
AcDbScale
 70
     0
300
4:1
140
4.0
141
1.0
290
     0
  0
SCALE
  5
165
102
{ACAD_REACTORS
330
156
102
}
330
156
100
AcDbScale
 70
     0
300
8:1
140
8.0
141
1.0
290
     0
  0
SCALE
  5
166
102
{ACAD_REACTORS
330
156
102
}
330
156
100
AcDbScale
 70
     0
300
10:1
140
10.0
141
1.0
290
     0
  0
SCALE
  5
167
102
{ACAD_REACTORS
330
156
102
}
330
156
100
AcDbScale
 70
     0
300
100:1
140
100.0
141
1.0
290
     0
  0
TABLESTYLE
  5
87
102
{ACAD_XDICTIONARY
360
821
102
}
102
{ACAD_REACTORS
330
86
102
}
330
86
100
AcDbTableStyle
  3
Standard
 70
     0
 71
     0
 40
0.06
 41
0.06
280
     0
281
     0
  7
Standard
140
0.18
170
     2
 62
     0
 63
     7
283
     0
274
    -2
284
     1
 64
     0
275
    -2
285
     1
 65
     0
276
    -2
286
     1
 66
     0
277
    -2
287
     1
 67
     0
278
    -2
288
     1
 68
     0
279
    -2
289
     1
 69
     0
  7
Standard
140
0.25
170
     5
 62
     0
 63
     7
283
     0
274
    -2
284
     1
 64
     0
275
    -2
285
     1
 65
     0
276
    -2
286
     1
 66
     0
277
    -2
287
     1
 67
     0
278
    -2
288
     1
 68
     0
279
    -2
289
     1
 69
     0
  7
Standard
140
0.18
170
     5
 62
     0
 63
     7
283
     0
274
    -2
284
     1
 64
     0
275
    -2
285
     1
 65
     0
276
    -2
286
     1
 66
     0
277
    -2
287
     1
 67
     0
278
    -2
288
     1
 68
     0
279
    -2
289
     1
 69
     0
  0
VISUALSTYLE
  5
9F
102
{ACAD_XDICTIONARY
360
15B5
102
}
102
{ACAD_REACTORS
330
99
102
}
330
99
100
AcDbVisualStyle
  2

 70
     4
 71
     0
 72
     2
 73
     1
 90
        0
 40
-0.6
 41
-30.0
 62
     5
 63
     7
 74
     1
 91
        4
 64
     7
 65
   257
 75
     1
175
     1
 42
1.0
 92
        0
 66
   257
 43
1.0
 76
     1
 77
     6
 78
     2
 67
     7
 79
     5
170
     0
171
     0
290
     0
174
     0
 93
        1
 44
0.0
173
     0
291
     0
 45
0.0
1001
ACAD
1000
AcDbSavedByObjectVersion
1070
     0
  0
VISUALSTYLE
  5
A1
102
{ACAD_XDICTIONARY
360
15B9
102
}
102
{ACAD_REACTORS
330
99
102
}
330
99
100
AcDbVisualStyle
  2

 70
     6
 71
     1
 72
     2
 73
     2
 90
        0
 40
-0.6
 41
-30.0
 62
     5
 63
     7
 74
     2
 91
        2
 64
     7
 65
   257
 75
     2
175
     1
 42
40.0
 92
        0
 66
   257
 43
1.0
 76
     1
 77
     6
 78
     2
 67
     7
 79
     3
170
     0
171
     0
290
     0
174
     0
 93
        1
 44
0.0
173
     0
291
     0
 45
0.0
1001
ACAD
1000
AcDbSavedByObjectVersion
1070
     0
  0
VISUALSTYLE
  5
A0
102
{ACAD_XDICTIONARY
360
15B7
102
}
102
{ACAD_REACTORS
330
99
102
}
330
99
100
AcDbVisualStyle
  2

 70
     5
 71
     0
 72
     2
 73
     1
 90
        0
 40
-0.6
 41
-30.0
 62
     5
 63
     7
 74
     1
 91
        4
 64
     7
 65
   257
 75
     1
175
     1
 42
1.0
 92
        0
 66
   257
 43
1.0
 76
     1
 77
     6
 78
     2
 67
     7
 79
     5
170
     0
171
     0
290
     0
174
     0
 93
        1
 44
0.0
173
     0
291
     0
 45
0.0
1001
ACAD
1000
AcDbSavedByObjectVersion
1070
     0
  0
VISUALSTYLE
  5
9E
102
{ACAD_XDICTIONARY
360
15B3
102
}
102
{ACAD_REACTORS
330
99
102
}
330
99
100
AcDbVisualStyle
  2

 70
     7
 71
     1
 72
     0
 73
     1
 90
        0
 40
-0.6
 41
-30.0
 62
     5
 63
     7
 74
     0
 91
        4
 64
     7
 65
   257
 75
     1
175
     1
 42
1.0
 92
        8
 66
     7
 43
1.0
 76
     1
 77
     6
 78
     2
 67
     7
 79
     5
170
     0
171
     0
290
     0
174
     0
 93
        1
 44
0.0
173
     0
291
     1
 45
0.0
1001
ACAD
1000
AcDbSavedByObjectVersion
1070
     0
  0
VISUALSTYLE
  5
A5
102
{ACAD_XDICTIONARY
360
15C1
102
}
102
{ACAD_REACTORS
330
99
102
}
330
99
100
AcDbVisualStyle
  2

 70
    12
 71
     2
 72
     2
 73
     1
 90
        0
 40
-0.6
 41
-30.0
 62
     5
 63
     7
 74
     1
 91
        4
 64
     7
 65
   257
 75
     1
175
     1
 42
1.0
 92
        8
 66
     7
 43
1.0
 76
     1
 77
     6
 78
     2
 67
     7
 79
     5
170
     0
171
     0
290
     0
174
     0
 93
        1
 44
50.0
173
     0
291
     1
 45
0.0
1001
ACAD
1000
AcDbSavedByObjectVersion
1070
     0
  0
VISUALSTYLE
  5
A9
102
{ACAD_XDICTIONARY
360
15C9
102
}
102
{ACAD_REACTORS
330
99
102
}
330
99
100
AcDbVisualStyle
  2

 70
    16
 71
     2
 72
     2
 73
     3
 90
        0
 40
-0.6
 41
-30.0
 62
     5
 63
     8
 74
     1
 91
        4
 64
     7
 65
   257
 75
     1
175
     1
 42
1.0
 92
        8
 66
     8
 43
1.0
 76
     1
 77
     6
 78
     2
 67
     7
 79
     5
170
     0
171
     0
290
     0
174
     0
 93
        1
 44
0.0
173
     0
291
     1
 45
0.0
1001
ACAD
1000
AcDbSavedByObjectVersion
1070
     0
  0
VISUALSTYLE
  5
A2
102
{ACAD_XDICTIONARY
360
15BB
102
}
102
{ACAD_REACTORS
330
99
102
}
330
99
100
AcDbVisualStyle
  2

 70
     9
 71
     3
 72
     2
 73
     1
 90
        0
 40
-0.6
 41
-30.0
 62
     5
 63
     7
 74
     2
 91
        2
 64
     7
 65
   257
 75
     1
175
     1
 42
40.0
 92
        8
 66
     7
 43
1.0
 76
     1
 77
     6
 78
     2
 67
     7
 79
     3
170
     0
171
     0
290
     0
174
     0
 93
        1
 44
0.0
173
     0
291
     0
 45
0.0
1001
ACAD
1000
AcDbSavedByObjectVersion
1070
     0
  0
VISUALSTYLE
  5
A4
102
{ACAD_XDICTIONARY
360
15BF
102
}
102
{ACAD_REACTORS
330
99
102
}
330
99
100
AcDbVisualStyle
  2

 70
    11
 71
     2
 72
     2
 73
     1
 90
        0
 40
-0.6
 41
-30.0
 62
     5
 63
     7
 74
     1
 91
        4
 64
     7
 65
   257
 75
     1
175
     1
 42
1.0
 92
        8
 66
     7
 43
1.0
 76
     1
 77
     6
 78
     2
 67
     7
 79
     5
170
     0
171
     0
290
     0
174
     0
 93
        1
 44
-50.0
173
     0
291
     1
 45
0.0
1001
ACAD
1000
AcDbSavedByObjectVersion
1070
     0
  0
VISUALSTYLE
  5
155
102
{ACAD_XDICTIONARY
360
15DD
102
}
102
{ACAD_REACTORS
330
99
102
}
330
99
100
AcDbVisualStyle
  2

 70
    22
 71
     2
 72
     2
 73
     0
 90
        0
 40
-0.6
 41
-30.0
 62
     5
 63
     7
 74
     1
 91
        4
 64
     7
 65
   257
 75
     1
175
     1
 42
1.0
 92
        8
 66
     7
 43
1.0
 76
     1
 77
     6
 78
     2
 67
     7
 79
     5
170
     0
171
     0
290
     0
174
     0
 93
        1
 44
0.0
173
     0
291
     1
 45
0.0
1001
ACAD
1000
AcDbSavedByObjectVersion
1070
     0
  0
VISUALSTYLE
  5
A8
102
{ACAD_XDICTIONARY
360
15C7
102
}
102
{ACAD_REACTORS
330
99
102
}
330
99
100
AcDbVisualStyle
  2

 70
    15
 71
     2
 72
     2
 73
     1
 90
        0
 40
-0.6
 41
-30.0
 62
     5
 63
     7
 74
     1
 91
        4
 64
     7
 65
   257
 75
     1
175
     1
 42
1.0
 92
        8
 66
     7
 43
1.0
 76
     1
 77
     6
 78
     2
 67
     7
 79
     5
170
     0
171
     0
290
     0
174
     0
 93
        1
 44
0.0
173
     0
291
     1
 45
0.0
1001
ACAD
1000
AcDbSavedByObjectVersion
1070
     0
  0
VISUALSTYLE
  5
9A
102
{ACAD_XDICTIONARY
360
15AB
102
}
102
{ACAD_REACTORS
330
99
102
}
330
99
100
AcDbVisualStyle
  2

 70
     0
 71
     2
 72
     1
 73
     1
 90
        2
 40
-0.6
 41
30.0
 62
     5
 63
     7
 74
     0
 91
        4
 64
     7
 65
   257
 75
     1
175
     1
 42
1.0
 92
        8
 66
     7
 43
1.0
 76
     1
 77
     6
 78
     2
 67
     7
 79
     5
170
     0
171
     0
290
     0
174
     0
 93
        1
 44
0.0
173
     0
291
     1
 45
0.0
1001
ACAD
1000
AcDbSavedByObjectVersion
1070
     0
  0
VISUALSTYLE
  5
9B
102
{ACAD_XDICTIONARY
360
15AD
102
}
102
{ACAD_REACTORS
330
99
102
}
330
99
100
AcDbVisualStyle
  2

 70
     1
 71
     2
 72
     1
 73
     1
 90
        2
 40
-0.6
 41
30.0
 62
     5
 63
     7
 74
     1
 91
        4
 64
     7
 65
   257
 75
     1
175
     1
 42
1.0
 92
        0
 66
   257
 43
1.0
 76
     1
 77
     6
 78
     2
 67
     7
 79
     5
170
     0
171
     0
290
     0
174
     0
 93
        1
 44
0.0
173
     0
291
     1
 45
0.0
1001
ACAD
1000
AcDbSavedByObjectVersion
1070
     0
  0
VISUALSTYLE
  5
9C
102
{ACAD_XDICTIONARY
360
15AF
102
}
102
{ACAD_REACTORS
330
99
102
}
330
99
100
AcDbVisualStyle
  2

 70
     2
 71
     2
 72
     2
 73
     1
 90
        2
 40
-0.6
 41
30.0
 62
     5
 63
     7
 74
     0
 91
        4
 64
     7
 65
   257
 75
     1
175
     1
 42
1.0
 92
        0
 66
     7
 43
1.0
 76
     1
 77
     6
 78
     2
 67
     7
 79
     5
170
     0
171
     0
290
     0
174
     0
 93
        1
 44
0.0
173
     0
291
     1
 45
0.0
1001
ACAD
1000
AcDbSavedByObjectVersion
1070
     0
  0
VISUALSTYLE
  5
9D
102
{ACAD_XDICTIONARY
360
15B1
102
}
102
{ACAD_REACTORS
330
99
102
}
330
99
100
AcDbVisualStyle
  2

 70
     3
 71
     2
 72
     2
 73
     1
 90
        2
 40
-0.6
 41
30.0
 62
     5
 63
     7
 74
     1
 91
        4
 64
     7
 65
   257
 75
     1
175
     1
 42
1.0
 92
        0
 66
   257
 43
1.0
 76
     1
 77
     6
 78
     2
 67
     7
 79
     5
170
     0
171
     0
290
     0
174
     0
 93
        1
 44
0.0
173
     0
291
     1
 45
0.0
1001
ACAD
1000
AcDbSavedByObjectVersion
1070
     0
  0
VISUALSTYLE
  5
14D
102
{ACAD_XDICTIONARY
360
15CD
102
}
102
{ACAD_REACTORS
330
99
102
}
330
99
100
AcDbVisualStyle
  2

 70
     6
 71
     1
 72
     2
 73
     2
 90
        0
 40
-0.6
 41
-30.0
 62
     5
 63
     7
 74
     2
 91
        2
 64
     7
 65
   257
 75
     2
175
     1
 42
40.0
 92
        0
 66
   257
 43
1.0
 76
     1
 77
     6
 78
     2
 67
     7
 79
     3
170
     0
171
     0
290
     0
174
     0
 93
        1
 44
0.0
173
     0
291
     0
 45
0.0
1001
ACAD
1000
AcDbSavedByObjectVersion
1070
     0
  0
VISUALSTYLE
  5
153
102
{ACAD_XDICTIONARY
360
15D9
102
}
102
{ACAD_REACTORS
330
99
102
}
330
99
100
AcDbVisualStyle
  2

 70
    20
 71
     2
 72
     2
 73
     0
 90
        0
 40
-0.6
 41
-30.0
 62
     5
 63
     7
 74
     1
 91
        4
 64
     7
 65
   257
 75
     1
175
     1
 42
1.0
 92
       10
 66
     7
 43
1.0
 76
     1
 77
     6
 78
     2
 67
     7
 79
     5
170
     0
171
     0
290
     0
174
     0
 93
        1
 44
0.0
173
     0
291
     1
 45
0.0
1001
ACAD
1000
AcDbSavedByObjectVersion
1070
     0
  0
VISUALSTYLE
  5
A7
102
{ACAD_XDICTIONARY
360
15C5
102
}
102
{ACAD_REACTORS
330
99
102
}
330
99
100
AcDbVisualStyle
  2

 70
    14
 71
     2
 72
     2
 73
     1
 90
        0
 40
-0.6
 41
-30.0
 62
     5
 63
     7
 74
     1
 91
        4
 64
     7
 65
   257
 75
     7
175
     7
 42
1.0
 92
        8
 66
     7
 43
1.0
 76
     1
 77
     6
 78
     2
 67
     7
 79
     5
170
     0
171
     0
290
     0
174
     0
 93
        1
 44
0.0
173
     0
291
     1
 45
0.0
1001
ACAD
1000
AcDbSavedByObjectVersion
1070
     0
  0
VISUALSTYLE
  5
154
102
{ACAD_XDICTIONARY
360
15DB
102
}
102
{ACAD_REACTORS
330
99
102
}
330
99
100
AcDbVisualStyle
  2

 70
    21
 71
     2
 72
     2
 73
     0
 90
        0
 40
-0.6
 41
-30.0
 62
     5
 63
     7
 74
     1
 91
        4
 64
     7
 65
   257
 75
     1
175
     1
 42
1.0
 92
        9
 66
     7
 43
1.0
 76
     1
 77
     6
 78
     2
 67
     7
 79
     5
170
     0
171
     0
290
     0
174
     0
 93
        1
 44
0.0
173
     0
291
     1
 45
0.0
1001
ACAD
1000
AcDbSavedByObjectVersion
1070
     0
  0
VISUALSTYLE
  5
A3
102
{ACAD_XDICTIONARY
360
15BD
102
}
102
{ACAD_REACTORS
330
99
102
}
330
99
100
AcDbVisualStyle
  2

 70
     8
 71
     2
 72
     2
 73
     1
 90
        0
 40
-0.6
 41
-30.0
 62
     5
 63
     7
 74
     1
 91
        0
 64
     7
 65
   257
 75
     1
175
     1
 42
1.0
 92
        8
 66
     8
 43
1.0
 76
     1
 77
     6
 78
     2
 67
     7
 79
     5
170
     0
171
     0
290
     0
174
     0
 93
       13
 44
0.0
173
     0
291
     0
 45
0.0
1001
ACAD
1000
AcDbSavedByObjectVersion
1070
     0
  0
VISUALSTYLE
  5
152
102
{ACAD_XDICTIONARY
360
15D7
102
}
102
{ACAD_REACTORS
330
99
102
}
330
99
100
AcDbVisualStyle
  2

 70
    27
 71
     2
 72
     2
 73
     1
 90
        2
 40
-0.6
 41
30.0
 62
     5
 63
     7
 74
     0
 91
        4
 64
     7
 65
   257
 75
     1
175
     1
 42
1.0
 92
        8
 66
   257
 43
1.0
 76
     1
 77
     6
 78
     2
 67
     8
 79
     3
170
     0
171
     0
290
     0
174
     0
 93
        5
 44
0.0
173
     0
291
     0
 45
0.0
1001
ACAD
1000
AcDbSavedByObjectVersion
1070
     0
  0
VISUALSTYLE
  5
151
102
{ACAD_XDICTIONARY
360
15D5
102
}
102
{ACAD_REACTORS
330
99
102
}
330
99
100
AcDbVisualStyle
  2

 70
    26
 71
     2
 72
     2
 73
     1
 90
        2
 40
-0.6
 41
30.0
 62
     5
 63
     7
 74
     1
 91
       10
 64
     7
 65
   257
 75
     2
175
     1
 42
1.0
 92
        8
 66
   257
 43
1.0
 76
     1
 77
     6
 78
     2
 67
     7
 79
     3
170
     0
171
     0
290
     0
174
     0
 93
        5
 44
0.0
173
     0
291
     0
 45
0.0
1001
ACAD
1000
AcDbSavedByObjectVersion
1070
     0
  0
VISUALSTYLE
  5
14E
102
{ACAD_XDICTIONARY
360
15CF
102
}
102
{ACAD_REACTORS
330
99
102
}
330
99
100
AcDbVisualStyle
  2

 70
    23
 71
     2
 72
     2
 73
     3
 90
        0
 40
-0.6
 41
-30.0
 62
     5
 63
     7
 74
     2
 91
        2
 64
     7
 65
     7
 75
     1
175
     1
 42
40.0
 92
        8
 66
     7
 43
1.0
 76
     1
 77
     6
 78
     2
 67
     7
 79
     3
170
     0
171
     0
290
     0
174
     0
 93
        1
 44
0.0
173
     0
291
     0
 45
0.0
1001
ACAD
1000
AcDbSavedByObjectVersion
1070
     0
  0
VISUALSTYLE
  5
14F
102
{ACAD_XDICTIONARY
360
15D1
102
}
102
{ACAD_REACTORS
330
99
102
}
330
99
100
AcDbVisualStyle
  2

 70
    24
 71
     1
 72
     2
 73
     2
 90
        0
 40
-0.6
 41
-30.0
 62
     5
 63
     7
 74
     2
 91
        2
 64
     7
 65
     7
 75
     1
175
     1
 42
40.0
 92
       11
 66
     7
 43
1.0
 76
     1
 77
     6
 78
     2
 67
     7
 79
     6
170
     0
171
     0
290
     0
174
     0
 93
        1
 44
0.0
173
     0
291
     0
 45
0.0
1001
ACAD
1000
AcDbSavedByObjectVersion
1070
     0
  0
VISUALSTYLE
  5
A6
102
{ACAD_XDICTIONARY
360
15C3
102
}
102
{ACAD_REACTORS
330
99
102
}
330
99
100
AcDbVisualStyle
  2

 70
    13
 71
     2
 72
     2
 73
     1
 90
        0
 40
-0.6
 41
-30.0
 62
     5
 63
     7
 74
     1
 91
        4
 64
     7
 65
   257
 75
     1
175
     1
 42
1.0
 92
       12
 66
     7
 43
1.0
 76
     1
 77
     6
 78
     2
 67
     7
 79
     5
170
     0
171
     0
290
     0
174
     0
 93
        1
 44
0.0
173
     0
291
     1
 45
0.0
1001
ACAD
1000
AcDbSavedByObjectVersion
1070
     0
  0
VISUALSTYLE
  5
14C
102
{ACAD_XDICTIONARY
360
15CB
102
}
102
{ACAD_REACTORS
330
99
102
}
330
99
100
AcDbVisualStyle
  2

 70
     5
 71
     0
 72
     2
 73
     0
 90
        0
 40
-0.6
 41
-30.0
 62
     5
 63
     7
 74
     1
 91
        4
 64
     7
 65
   257
 75
     1
175
     1
 42
1.0
 92
        0
 66
   257
 43
1.0
 76
     1
 77
     6
 78
     2
 67
     7
 79
     3
170
     0
171
     0
290
     0
174
     0
 93
        1
 44
0.0
173
     0
291
     0
 45
0.0
1001
ACAD
1000
AcDbSavedByObjectVersion
1070
     0
  0
VISUALSTYLE
  5
150
102
{ACAD_XDICTIONARY
360
15D3
102
}
102
{ACAD_REACTORS
330
99
102
}
330
99
100
AcDbVisualStyle
  2

 70
    25
 71
     2
 72
     2
 73
     1
 90
        1
 40
0.5
 41
-30.0
 62
     5
 63
     7
 74
     1
 91
        0
 64
     7
 65
   257
 75
     1
175
     1
 42
1.0
 92
        8
 66
     7
 43
1.0
 76
     1
 77
     6
 78
     2
 67
     7
 79
     3
170
     0
171
     0
290
     0
174
     0
 93
       13
 44
0.0
173
     0
291
     0
 45
0.0
1001
ACAD
1000
AcDbSavedByObjectVersion
1070
     0
  0
DICTIONARYVAR
  5
245
102
{ACAD_REACTORS
330
66
102
}
330
66
100
DictionaryVariables
280
     0
  1
1:1
  0
DICTIONARYVAR
  5
243
102
{ACAD_REACTORS
330
66
102
}
330
66
100
DictionaryVariables
280
     0
  1
STANDARD
  0
DICTIONARYVAR
  5
89
102
{ACAD_REACTORS
330
66
102
}
330
66
100
DictionaryVariables
280
     0
  1
STANDARD
  0
DICTIONARYVAR
  5
67
102
{ACAD_REACTORS
330
66
102
}
330
66
100
DictionaryVariables
280
     0
  1
2
  0
DICTIONARYVAR
  5
6B
102
{ACAD_REACTORS
330
66
102
}
330
66
100
DictionaryVariables
280
     0
  1
1
  0
DICTIONARYVAR
  5
870
102
{ACAD_REACTORS
330
66
102
}
330
66
100
DictionaryVariables
280
     0
  1
0
  0
DICTIONARYVAR
  5
247
102
{ACAD_REACTORS
330
66
102
}
330
66
100
DictionaryVariables
280
     0
  1
1
  0
DICTIONARYVAR
  5
248
102
{ACAD_REACTORS
330
66
102
}
330
66
100
DictionaryVariables
280
     0
  1
15
  0
DICTIONARYVAR
  5
246
102
{ACAD_REACTORS
330
66
102
}
330
66
100
DictionaryVariables
280
     0
  1
0
  0
DICTIONARYVAR
  5
244
102
{ACAD_REACTORS
330
66
102
}
330
66
100
DictionaryVariables
280
     0
  1
0
  0
DICTIONARYVAR
  5
86F
102
{ACAD_REACTORS
330
66
102
}
330
66
100
DictionaryVariables
280
     0
  1
127
  0
DICTIONARYVAR
  5
14B2
102
{ACAD_REACTORS
330
66
102
}
330
66
100
DictionaryVariables
280
     0
  1
2
  0
DICTIONARY
  5
15A4
330
22
100
AcDbDictionary
280
     1
281
     1
  3
ACAD_XREC_ROUNDTRIP
360
15A5
  0
DICTIONARY
  5
15A6
330
59
100
AcDbDictionary
280
     1
281
     1
  3
ACAD_XREC_ROUNDTRIP
360
15A7
  0
DICTIONARY
  5
15A8
330
5E
100
AcDbDictionary
280
     1
281
     1
  3
ACAD_XREC_ROUNDTRIP
360
15A9
  0
DICTIONARY
  5
13D2
330
97
100
AcDbDictionary
280
     1
281
     1
  3
ACAD_XREC_ROUNDTRIP
360
13D3
  0
DICTIONARY
  5
13D0
330
96
100
AcDbDictionary
280
     1
281
     1
  3
ACAD_XREC_ROUNDTRIP
360
13D1
  0
DICTIONARY
  5
13D4
330
98
100
AcDbDictionary
280
     1
281
     1
  3
ACAD_XREC_ROUNDTRIP
360
13D5
  0
DICTIONARY
  5
821
330
87
100
AcDbDictionary
280
     1
281
     1
  3
ACAD_ROUNDTRIP_2008_TABLESTYLE_CELLSTYLEMAP
360
159D
  3
ACAD_XREC_ROUNDTRIP
360
15AA
  0
DICTIONARY
  5
15B5
330
9F
100
AcDbDictionary
280
     1
281
     1
  3
ACAD_XREC_ROUNDTRIP
360
15B6
  0
DICTIONARY
  5
15B9
330
A1
100
AcDbDictionary
280
     1
281
     1
  3
ACAD_XREC_ROUNDTRIP
360
15BA
  0
DICTIONARY
  5
15B7
330
A0
100
AcDbDictionary
280
     1
281
     1
  3
ACAD_XREC_ROUNDTRIP
360
15B8
  0
DICTIONARY
  5
15B3
330
9E
100
AcDbDictionary
280
     1
281
     1
  3
ACAD_XREC_ROUNDTRIP
360
15B4
  0
DICTIONARY
  5
15C1
330
A5
100
AcDbDictionary
280
     1
281
     1
  3
ACAD_XREC_ROUNDTRIP
360
15C2
  0
DICTIONARY
  5
15C9
330
A9
100
AcDbDictionary
280
     1
281
     1
  3
ACAD_XREC_ROUNDTRIP
360
15CA
  0
DICTIONARY
  5
15BB
330
A2
100
AcDbDictionary
280
     1
281
     1
  3
ACAD_XREC_ROUNDTRIP
360
15BC
  0
DICTIONARY
  5
15BF
330
A4
100
AcDbDictionary
280
     1
281
     1
  3
ACAD_XREC_ROUNDTRIP
360
15C0
  0
DICTIONARY
  5
15DD
330
155
100
AcDbDictionary
280
     1
281
     1
  3
ACAD_XREC_ROUNDTRIP
360
15DE
  0
DICTIONARY
  5
15C7
330
A8
100
AcDbDictionary
280
     1
281
     1
  3
ACAD_XREC_ROUNDTRIP
360
15C8
  0
DICTIONARY
  5
15AB
330
9A
100
AcDbDictionary
280
     1
281
     1
  3
ACAD_XREC_ROUNDTRIP
360
15AC
  0
DICTIONARY
  5
15AD
330
9B
100
AcDbDictionary
280
     1
281
     1
  3
ACAD_XREC_ROUNDTRIP
360
15AE
  0
DICTIONARY
  5
15AF
330
9C
100
AcDbDictionary
280
     1
281
     1
  3
ACAD_XREC_ROUNDTRIP
360
15B0
  0
DICTIONARY
  5
15B1
330
9D
100
AcDbDictionary
280
     1
281
     1
  3
ACAD_XREC_ROUNDTRIP
360
15B2
  0
DICTIONARY
  5
15CD
330
14D
100
AcDbDictionary
280
     1
281
     1
  3
ACAD_XREC_ROUNDTRIP
360
15CE
  0
DICTIONARY
  5
15D9
330
153
100
AcDbDictionary
280
     1
281
     1
  3
ACAD_XREC_ROUNDTRIP
360
15DA
  0
DICTIONARY
  5
15C5
330
A7
100
AcDbDictionary
280
     1
281
     1
  3
ACAD_XREC_ROUNDTRIP
360
15C6
  0
DICTIONARY
  5
15DB
330
154
100
AcDbDictionary
280
     1
281
     1
  3
ACAD_XREC_ROUNDTRIP
360
15DC
  0
DICTIONARY
  5
15BD
330
A3
100
AcDbDictionary
280
     1
281
     1
  3
ACAD_XREC_ROUNDTRIP
360
15BE
  0
DICTIONARY
  5
15D7
330
152
100
AcDbDictionary
280
     1
281
     1
  3
ACAD_XREC_ROUNDTRIP
360
15D8
  0
DICTIONARY
  5
15D5
330
151
100
AcDbDictionary
280
     1
281
     1
  3
ACAD_XREC_ROUNDTRIP
360
15D6
  0
DICTIONARY
  5
15CF
330
14E
100
AcDbDictionary
280
     1
281
     1
  3
ACAD_XREC_ROUNDTRIP
360
15D0
  0
DICTIONARY
  5
15D1
330
14F
100
AcDbDictionary
280
     1
281
     1
  3
ACAD_XREC_ROUNDTRIP
360
15D2
  0
DICTIONARY
  5
15C3
330
A6
100
AcDbDictionary
280
     1
281
     1
  3
ACAD_XREC_ROUNDTRIP
360
15C4
  0
DICTIONARY
  5
15CB
330
14C
100
AcDbDictionary
280
     1
281
     1
  3
ACAD_XREC_ROUNDTRIP
360
15CC
  0
DICTIONARY
  5
15D3
330
150
100
AcDbDictionary
280
     1
281
     1
  3
ACAD_XREC_ROUNDTRIP
360
15D4
  0
XRECORD
  5
15A5
102
{ACAD_REACTORS
330
15A4
102
}
330
15A4
100
AcDbXrecord
280
     1
102
SHADEPLOT
 70
     0
102
SHADEPLOTRESLEVEL
 70
     2
102
SHADEPLOTCUSTOMDPI
 70
   300
  0
XRECORD
  5
15A7
102
{ACAD_REACTORS
330
15A6
102
}
330
15A6
100
AcDbXrecord
280
     1
102
SHADEPLOT
 70
     0
102
SHADEPLOTRESLEVEL
 70
     2
102
SHADEPLOTCUSTOMDPI
 70
   300
  0
XRECORD
  5
15A9
102
{ACAD_REACTORS
330
15A8
102
}
330
15A8
100
AcDbXrecord
280
     1
102
SHADEPLOT
 70
     0
102
SHADEPLOTRESLEVEL
 70
     2
102
SHADEPLOTCUSTOMDPI
 70
   300
  0
XRECORD
  5
13D3
102
{ACAD_REACTORS
330
13D2
102
}
330
13D2
100
AcDbXrecord
280
     1
102
MATERIAL
148
0.0
149
0.0
149
0.0
 93
        0
 94
      127
282
     0
 72
     1
 77
     1
171
     1
175
     1
179
     1
273
     0
  0
XRECORD
  5
13D1
102
{ACAD_REACTORS
330
13D0
102
}
330
13D0
100
AcDbXrecord
280
     1
102
MATERIAL
148
0.0
149
0.0
149
0.0
 93
        0
 94
      127
282
     0
 72
     1
 77
     1
171
     1
175
     1
179
     1
273
     0
  0
XRECORD
  5
13D5
102
{ACAD_REACTORS
330
13D4
102
}
330
13D4
100
AcDbXrecord
280
     1
102
MATERIAL
148
0.0
149
0.0
149
0.0
 93
        0
 94
      127
282
     0
 72
     1
 77
     1
171
     1
175
     1
179
     1
273
     0
  0
CELLSTYLEMAP
  5
159D
102
{ACAD_REACTORS
330
821
102
}
330
821
100
AcDbCellStyleMap
 90
        3
300
CELLSTYLE
  1
TABLEFORMAT_BEGIN
 90
        5
170
     1
 91
        0
 92
    32768
 62
   257
 93
        1
300
CONTENTFORMAT
  1
CONTENTFORMAT_BEGIN
 90
        0
 91
        0
 92
      512
 93
        0
300

 40
0.0
140
1.0
 94
        5
 62
     0
340
11
144
0.25
309
CONTENTFORMAT_END
171
     1
301
MARGIN
  1
CELLMARGIN_BEGIN
 40
0.06
 40
0.06
 40
0.06
 40
0.06
 40
0.18
 40
0.18
309
CELLMARGIN_END
 94
        6
 95
        1
302
GRIDFORMAT
  1
GRIDFORMAT_BEGIN
 90
        0
 91
        1
 62
     0
 92
       -2
340
0
 93
        0
 40
0.045
309
GRIDFORMAT_END
 95
        2
302
GRIDFORMAT
  1
GRIDFORMAT_BEGIN
 90
        0
 91
        1
 62
     0
 92
       -2
340
0
 93
        0
 40
0.045
309
GRIDFORMAT_END
 95
        4
302
GRIDFORMAT
  1
GRIDFORMAT_BEGIN
 90
        0
 91
        1
 62
     0
 92
       -2
340
0
 93
        0
 40
0.045
309
GRIDFORMAT_END
 95
        8
302
GRIDFORMAT
  1
GRIDFORMAT_BEGIN
 90
        0
 91
        1
 62
     0
 92
       -2
340
0
 93
        0
 40
0.045
309
GRIDFORMAT_END
 95
       16
302
GRIDFORMAT
  1
GRIDFORMAT_BEGIN
 90
        0
 91
        1
 62
     0
 92
       -2
340
0
 93
        0
 40
0.045
309
GRIDFORMAT_END
 95
       32
302
GRIDFORMAT
  1
GRIDFORMAT_BEGIN
 90
        0
 91
        1
 62
     0
 92
       -2
340
0
 93
        0
 40
0.045
309
GRIDFORMAT_END
309
TABLEFORMAT_END
  1
CELLSTYLE_BEGIN
 90
        1
 91
        1
300
_TITLE
309
CELLSTYLE_END
300
CELLSTYLE
  1
TABLEFORMAT_BEGIN
 90
        5
170
     1
 91
        0
 92
        0
 62
   257
 93
        1
300
CONTENTFORMAT
  1
CONTENTFORMAT_BEGIN
 90
        0
 91
        0
 92
      512
 93
        0
300

 40
0.0
140
1.0
 94
        5
 62
     0
340
11
144
0.18
309
CONTENTFORMAT_END
171
     1
301
MARGIN
  1
CELLMARGIN_BEGIN
 40
0.06
 40
0.06
 40
0.06
 40
0.06
 40
0.18
 40
0.18
309
CELLMARGIN_END
 94
        6
 95
        1
302
GRIDFORMAT
  1
GRIDFORMAT_BEGIN
 90
        0
 91
        1
 62
     0
 92
       -2
340
0
 93
        0
 40
0.045
309
GRIDFORMAT_END
 95
        2
302
GRIDFORMAT
  1
GRIDFORMAT_BEGIN
 90
        0
 91
        1
 62
     0
 92
       -2
340
0
 93
        0
 40
0.045
309
GRIDFORMAT_END
 95
        4
302
GRIDFORMAT
  1
GRIDFORMAT_BEGIN
 90
        0
 91
        1
 62
     0
 92
       -2
340
0
 93
        0
 40
0.045
309
GRIDFORMAT_END
 95
        8
302
GRIDFORMAT
  1
GRIDFORMAT_BEGIN
 90
        0
 91
        1
 62
     0
 92
       -2
340
0
 93
        0
 40
0.045
309
GRIDFORMAT_END
 95
       16
302
GRIDFORMAT
  1
GRIDFORMAT_BEGIN
 90
        0
 91
        1
 62
     0
 92
       -2
340
0
 93
        0
 40
0.045
309
GRIDFORMAT_END
 95
       32
302
GRIDFORMAT
  1
GRIDFORMAT_BEGIN
 90
        0
 91
        1
 62
     0
 92
       -2
340
0
 93
        0
 40
0.045
309
GRIDFORMAT_END
309
TABLEFORMAT_END
  1
CELLSTYLE_BEGIN
 90
        2
 91
        1
300
_HEADER
309
CELLSTYLE_END
300
CELLSTYLE
  1
TABLEFORMAT_BEGIN
 90
        5
170
     1
 91
        0
 92
        0
 62
   257
 93
        1
300
CONTENTFORMAT
  1
CONTENTFORMAT_BEGIN
 90
        0
 91
        0
 92
      512
 93
        0
300

 40
0.0
140
1.0
 94
        2
 62
     0
340
11
144
0.18
309
CONTENTFORMAT_END
171
     1
301
MARGIN
  1
CELLMARGIN_BEGIN
 40
0.06
 40
0.06
 40
0.06
 40
0.06
 40
0.18
 40
0.18
309
CELLMARGIN_END
 94
        6
 95
        1
302
GRIDFORMAT
  1
GRIDFORMAT_BEGIN
 90
        0
 91
        1
 62
     0
 92
       -2
340
0
 93
        0
 40
0.045
309
GRIDFORMAT_END
 95
        2
302
GRIDFORMAT
  1
GRIDFORMAT_BEGIN
 90
        0
 91
        1
 62
     0
 92
       -2
340
0
 93
        0
 40
0.045
309
GRIDFORMAT_END
 95
        4
302
GRIDFORMAT
  1
GRIDFORMAT_BEGIN
 90
        0
 91
        1
 62
     0
 92
       -2
340
0
 93
        0
 40
0.045
309
GRIDFORMAT_END
 95
        8
302
GRIDFORMAT
  1
GRIDFORMAT_BEGIN
 90
        0
 91
        1
 62
     0
 92
       -2
340
0
 93
        0
 40
0.045
309
GRIDFORMAT_END
 95
       16
302
GRIDFORMAT
  1
GRIDFORMAT_BEGIN
 90
        0
 91
        1
 62
     0
 92
       -2
340
0
 93
        0
 40
0.045
309
GRIDFORMAT_END
 95
       32
302
GRIDFORMAT
  1
GRIDFORMAT_BEGIN
 90
        0
 91
        1
 62
     0
 92
       -2
340
0
 93
        0
 40
0.045
309
GRIDFORMAT_END
309
TABLEFORMAT_END
  1
CELLSTYLE_BEGIN
 90
        3
 91
        2
300
_DATA
309
CELLSTYLE_END
  0
XRECORD
  5
15AA
102
{ACAD_REACTORS
330
821
102
}
330
821
100
AcDbXrecord
280
     1
102
ACAD_ROUNDTRIP_PRE2007_TABLESTYLE
 90
      512
 91
        0
  1

 92
      512
 93
        0
  2

 94
      512
 95
        0
  3

  0
XRECORD
  5
15B6
102
{ACAD_REACTORS
330
15B5
102
}
330
15B5
100
AcDbXrecord
280
     1
102
RTVSPropertyOp0
 70
     1
102
RTVSPropertyOp1
 70
     1
102
RTVSPropertyOp2
 70
     1
102
RTVSPropertyOp3
 70
     1
102
RTVSPropertyOp4
 70
     1
102
RTVSPropertyOp5
 70
     1
102
RTVSPropertyOp6
 70
     1
102
RTVSPropertyOp7
 70
     1
102
RTVSPropertyOp8
 70
     1
102
RTVSPropertyOp9
 70
     1
102
RTVSPropertyOp10
 70
     1
102
RTVSPropertyOp11
 70
     1
102
RTVSPropertyOp12
 70
     1
102
RTVSPropertyOp13
 70
     1
102
RTVSPropertyOp14
 70
     1
102
RTVSPropertyOp15
 70
     1
102
RTVSPropertyOp16
 70
     1
102
RTVSPropertyOp17
 70
     1
102
RTVSPropertyOp18
 70
     1
102
RTVSPropertyOp19
 70
     1
102
RTVSPropertyOp20
 70
     1
102
RTVSPropertyOp21
 70
     1
102
RTVSPropertyOp22
 70
     1
102
RTVSPropertyOp23
 70
     1
102
RTVSPropertyOp24
 70
     1
102
RTVSPropertyOp25
 70
     1
102
RTVSPropertyOp26
 70
     1
102
RTVSPropertyOp27
 70
     1
102
RTVSPropertyOp28
 70
     1
102
RTVSPropertyOp29
 70
     1
102
RTVSPropertyOp30
 70
     1
102
RTVSPropertyOp31
 70
     1
102
RTVSPropertyOp32
 70
     1
  0
XRECORD
  5
15BA
102
{ACAD_REACTORS
330
15B9
102
}
330
15B9
100
AcDbXrecord
280
     1
102
RTVSPropertyOp0
 70
     1
102
RTVSPropertyOp1
 70
     1
102
RTVSPropertyOp2
 70
     1
102
RTVSPropertyOp3
 70
     1
102
RTVSPropertyOp4
 70
     1
102
RTVSPropertyOp5
 70
     1
102
RTVSPropertyOp6
 70
     1
102
RTVSPropertyOp7
 70
     1
102
RTVSPropertyOp8
 70
     1
102
RTVSPropertyOp9
 70
     1
102
RTVSPropertyOp10
 70
     1
102
RTVSPropertyOp11
 70
     1
102
RTVSPropertyOp12
 70
     1
102
RTVSPropertyOp13
 70
     1
102
RTVSPropertyOp14
 70
     1
102
RTVSPropertyOp15
 70
     1
102
RTVSPropertyOp16
 70
     1
102
RTVSPropertyOp17
 70
     1
102
RTVSPropertyOp18
 70
     1
102
RTVSPropertyOp19
 70
     1
102
RTVSPropertyOp20
 70
     1
102
RTVSPropertyOp21
 70
     1
102
RTVSPropertyOp22
 70
     1
102
RTVSPropertyOp23
 70
     1
102
RTVSPropertyOp24
 70
     1
102
RTVSPropertyOp25
 70
     1
102
RTVSPropertyOp26
 70
     1
102
RTVSPropertyOp27
 70
     1
102
RTVSPropertyOp28
 70
     1
102
RTVSPropertyOp29
 70
     1
102
RTVSPropertyOp30
 70
     1
102
RTVSPropertyOp31
 70
     1
102
RTVSPropertyOp32
 70
     1
  0
XRECORD
  5
15B8
102
{ACAD_REACTORS
330
15B7
102
}
330
15B7
100
AcDbXrecord
280
     1
102
RTVSPropertyOp0
 70
     1
102
RTVSPropertyOp1
 70
     1
102
RTVSPropertyOp2
 70
     1
102
RTVSPropertyOp3
 70
     1
102
RTVSPropertyOp4
 70
     1
102
RTVSPropertyOp5
 70
     1
102
RTVSPropertyOp6
 70
     1
102
RTVSPropertyOp7
 70
     1
102
RTVSPropertyOp8
 70
     1
102
RTVSPropertyOp9
 70
     1
102
RTVSPropertyOp10
 70
     1
102
RTVSPropertyOp11
 70
     1
102
RTVSPropertyOp12
 70
     1
102
RTVSPropertyOp13
 70
     1
102
RTVSPropertyOp14
 70
     1
102
RTVSPropertyOp15
 70
     1
102
RTVSPropertyOp16
 70
     1
102
RTVSPropertyOp17
 70
     1
102
RTVSPropertyOp18
 70
     1
102
RTVSPropertyOp19
 70
     1
102
RTVSPropertyOp20
 70
     1
102
RTVSPropertyOp21
 70
     1
102
RTVSPropertyOp22
 70
     1
102
RTVSPropertyOp23
 70
     1
102
RTVSPropertyOp24
 70
     1
102
RTVSPropertyOp25
 70
     1
102
RTVSPropertyOp26
 70
     1
102
RTVSPropertyOp27
 70
     1
102
RTVSPropertyOp28
 70
     1
102
RTVSPropertyOp29
 70
     1
102
RTVSPropertyOp30
 70
     1
102
RTVSPropertyOp31
 70
     1
102
RTVSPropertyOp32
 70
     1
  0
XRECORD
  5
15B4
102
{ACAD_REACTORS
330
15B3
102
}
330
15B3
100
AcDbXrecord
280
     1
102
RTVSPropertyOp0
 70
     1
102
RTVSPropertyOp1
 70
     1
102
RTVSPropertyOp2
 70
     1
102
RTVSPropertyOp3
 70
     1
102
RTVSPropertyOp4
 70
     1
102
RTVSPropertyOp5
 70
     1
102
RTVSPropertyOp6
 70
     1
102
RTVSPropertyOp7
 70
     1
102
RTVSPropertyOp8
 70
     1
102
RTVSPropertyOp9
 70
     1
102
RTVSPropertyOp10
 70
     1
102
RTVSPropertyOp11
 70
     1
102
RTVSPropertyOp12
 70
     1
102
RTVSPropertyOp13
 70
     1
102
RTVSPropertyOp14
 70
     1
102
RTVSPropertyOp15
 70
     1
102
RTVSPropertyOp16
 70
     1
102
RTVSPropertyOp17
 70
     1
102
RTVSPropertyOp18
 70
     1
102
RTVSPropertyOp19
 70
     1
102
RTVSPropertyOp20
 70
     1
102
RTVSPropertyOp21
 70
     1
102
RTVSPropertyOp22
 70
     1
102
RTVSPropertyOp23
 70
     1
102
RTVSPropertyOp24
 70
     1
102
RTVSPropertyOp25
 70
     1
102
RTVSPropertyOp26
 70
     1
102
RTVSPropertyOp27
 70
     1
102
RTVSPropertyOp28
 70
     1
102
RTVSPropertyOp29
 70
     1
102
RTVSPropertyOp30
 70
     1
102
RTVSPropertyOp31
 70
     1
102
RTVSPropertyOp32
 70
     1
  0
XRECORD
  5
15C2
102
{ACAD_REACTORS
330
15C1
102
}
330
15C1
100
AcDbXrecord
280
     1
102
RTVSPropertyOp0
 70
     1
102
RTVSPropertyOp1
 70
     1
102
RTVSPropertyOp2
 70
     1
102
RTVSPropertyOp3
 70
     1
102
RTVSPropertyOp4
 70
     1
102
RTVSPropertyOp5
 70
     1
102
RTVSPropertyOp6
 70
     1
102
RTVSPropertyOp7
 70
     1
102
RTVSPropertyOp8
 70
     1
102
RTVSPropertyOp9
 70
     1
102
RTVSPropertyOp10
 70
     1
102
RTVSPropertyOp11
 70
     1
102
RTVSPropertyOp12
 70
     1
102
RTVSPropertyOp13
 70
     1
102
RTVSPropertyOp14
 70
     1
102
RTVSPropertyOp15
 70
     1
102
RTVSPropertyOp16
 70
     1
102
RTVSPropertyOp17
 70
     1
102
RTVSPropertyOp18
 70
     1
102
RTVSPropertyOp19
 70
     1
102
RTVSPropertyOp20
 70
     1
102
RTVSPropertyOp21
 70
     1
102
RTVSPropertyOp22
 70
     1
102
RTVSPropertyOp23
 70
     1
102
RTVSPropertyOp24
 70
     1
102
RTVSPropertyOp25
 70
     1
102
RTVSPropertyOp26
 70
     1
102
RTVSPropertyOp27
 70
     1
102
RTVSPropertyOp28
 70
     1
102
RTVSPropertyOp29
 70
     1
102
RTVSPropertyOp30
 70
     1
102
RTVSPropertyOp31
 70
     1
102
RTVSPropertyOp32
 70
     1
  0
XRECORD
  5
15CA
102
{ACAD_REACTORS
330
15C9
102
}
330
15C9
100
AcDbXrecord
280
     1
102
RTVSPropertyOp0
 70
     1
102
RTVSPropertyOp1
 70
     1
102
RTVSPropertyOp2
 70
     1
102
RTVSPropertyOp3
 70
     1
102
RTVSPropertyOp4
 70
     1
102
RTVSPropertyOp5
 70
     1
102
RTVSPropertyOp6
 70
     1
102
RTVSPropertyOp7
 70
     1
102
RTVSPropertyOp8
 70
     1
102
RTVSPropertyOp9
 70
     1
102
RTVSPropertyOp10
 70
     1
102
RTVSPropertyOp11
 70
     1
102
RTVSPropertyOp12
 70
     1
102
RTVSPropertyOp13
 70
     1
102
RTVSPropertyOp14
 70
     1
102
RTVSPropertyOp15
 70
     1
102
RTVSPropertyOp16
 70
     1
102
RTVSPropertyOp17
 70
     1
102
RTVSPropertyOp18
 70
     1
102
RTVSPropertyOp19
 70
     1
102
RTVSPropertyOp20
 70
     1
102
RTVSPropertyOp21
 70
     1
102
RTVSPropertyOp22
 70
     1
102
RTVSPropertyOp23
 70
     1
102
RTVSPropertyOp24
 70
     1
102
RTVSPropertyOp25
 70
     1
102
RTVSPropertyOp26
 70
     1
102
RTVSPropertyOp27
 70
     1
102
RTVSPropertyOp28
 70
     1
102
RTVSPropertyOp29
 70
     1
102
RTVSPropertyOp30
 70
     1
102
RTVSPropertyOp31
 70
     1
102
RTVSPropertyOp32
 70
     1
  0
XRECORD
  5
15BC
102
{ACAD_REACTORS
330
15BB
102
}
330
15BB
100
AcDbXrecord
280
     1
102
RTVSPropertyOp0
 70
     1
102
RTVSPropertyOp1
 70
     1
102
RTVSPropertyOp2
 70
     1
102
RTVSPropertyOp3
 70
     1
102
RTVSPropertyOp4
 70
     1
102
RTVSPropertyOp5
 70
     1
102
RTVSPropertyOp6
 70
     1
102
RTVSPropertyOp7
 70
     1
102
RTVSPropertyOp8
 70
     1
102
RTVSPropertyOp9
 70
     1
102
RTVSPropertyOp10
 70
     1
102
RTVSPropertyOp11
 70
     1
102
RTVSPropertyOp12
 70
     1
102
RTVSPropertyOp13
 70
     1
102
RTVSPropertyOp14
 70
     1
102
RTVSPropertyOp15
 70
     1
102
RTVSPropertyOp16
 70
     1
102
RTVSPropertyOp17
 70
     1
102
RTVSPropertyOp18
 70
     1
102
RTVSPropertyOp19
 70
     1
102
RTVSPropertyOp20
 70
     1
102
RTVSPropertyOp21
 70
     1
102
RTVSPropertyOp22
 70
     1
102
RTVSPropertyOp23
 70
     1
102
RTVSPropertyOp24
 70
     1
102
RTVSPropertyOp25
 70
     1
102
RTVSPropertyOp26
 70
     1
102
RTVSPropertyOp27
 70
     1
102
RTVSPropertyOp28
 70
     1
102
RTVSPropertyOp29
 70
     1
102
RTVSPropertyOp30
 70
     1
102
RTVSPropertyOp31
 70
     1
102
RTVSPropertyOp32
 70
     1
  0
XRECORD
  5
15C0
102
{ACAD_REACTORS
330
15BF
102
}
330
15BF
100
AcDbXrecord
280
     1
102
RTVSPropertyOp0
 70
     1
102
RTVSPropertyOp1
 70
     1
102
RTVSPropertyOp2
 70
     1
102
RTVSPropertyOp3
 70
     1
102
RTVSPropertyOp4
 70
     1
102
RTVSPropertyOp5
 70
     1
102
RTVSPropertyOp6
 70
     1
102
RTVSPropertyOp7
 70
     1
102
RTVSPropertyOp8
 70
     1
102
RTVSPropertyOp9
 70
     1
102
RTVSPropertyOp10
 70
     1
102
RTVSPropertyOp11
 70
     1
102
RTVSPropertyOp12
 70
     1
102
RTVSPropertyOp13
 70
     1
102
RTVSPropertyOp14
 70
     1
102
RTVSPropertyOp15
 70
     1
102
RTVSPropertyOp16
 70
     1
102
RTVSPropertyOp17
 70
     1
102
RTVSPropertyOp18
 70
     1
102
RTVSPropertyOp19
 70
     1
102
RTVSPropertyOp20
 70
     1
102
RTVSPropertyOp21
 70
     1
102
RTVSPropertyOp22
 70
     1
102
RTVSPropertyOp23
 70
     1
102
RTVSPropertyOp24
 70
     1
102
RTVSPropertyOp25
 70
     1
102
RTVSPropertyOp26
 70
     1
102
RTVSPropertyOp27
 70
     1
102
RTVSPropertyOp28
 70
     1
102
RTVSPropertyOp29
 70
     1
102
RTVSPropertyOp30
 70
     1
102
RTVSPropertyOp31
 70
     1
102
RTVSPropertyOp32
 70
     1
  0
XRECORD
  5
15DE
102
{ACAD_REACTORS
330
15DD
102
}
330
15DD
100
AcDbXrecord
280
     1
102
RTVSPropertyOp0
 70
     0
102
RTVSPropertyOp1
 70
     0
102
RTVSPropertyOp2
 70
     0
102
RTVSPropertyOp3
 70
     0
102
RTVSPropertyOp4
 70
     0
102
RTVSPropertyOp5
 70
     0
102
RTVSPropertyOp6
 70
     0
102
RTVSPropertyOp7
 70
     0
102
RTVSPropertyOp8
 70
     0
102
RTVSPropertyOp9
 70
     0
102
RTVSPropertyOp10
 70
     0
102
RTVSPropertyOp11
 70
     0
102
RTVSPropertyOp12
 70
     0
102
RTVSPropertyOp13
 70
     0
102
RTVSPropertyOp14
 70
     2
102
RTVSPropertyOp15
 70
     0
102
RTVSPropertyOp16
 70
     0
102
RTVSPropertyOp17
 70
     0
102
RTVSPropertyOp18
 70
     0
102
RTVSPropertyOp19
 70
     0
102
RTVSPropertyOp20
 70
     0
102
RTVSPropertyOp21
 70
     0
102
RTVSPropertyOp22
 70
     0
102
RTVSPropertyOp23
 70
     0
102
RTVSPropertyOp24
 70
     0
102
RTVSPropertyOp25
 70
     0
102
RTVSPropertyOp26
 70
     0
102
RTVSPropertyOp27
 70
     0
102
RTVSPropertyOp28
 70
     1
102
RTVSPropertyOp29
 70
     1
102
RTVSPropertyOp30
 70
     1
102
RTVSPropertyOp31
 70
     1
102
RTVSPropertyOp32
 70
     1
  0
XRECORD
  5
15C8
102
{ACAD_REACTORS
330
15C7
102
}
330
15C7
100
AcDbXrecord
280
     1
102
RTVSPropertyOp0
 70
     1
102
RTVSPropertyOp1
 70
     1
102
RTVSPropertyOp2
 70
     1
102
RTVSPropertyOp3
 70
     1
102
RTVSPropertyOp4
 70
     1
102
RTVSPropertyOp5
 70
     1
102
RTVSPropertyOp6
 70
     1
102
RTVSPropertyOp7
 70
     1
102
RTVSPropertyOp8
 70
     1
102
RTVSPropertyOp9
 70
     1
102
RTVSPropertyOp10
 70
     1
102
RTVSPropertyOp11
 70
     1
102
RTVSPropertyOp12
 70
     1
102
RTVSPropertyOp13
 70
     1
102
RTVSPropertyOp14
 70
     1
102
RTVSPropertyOp15
 70
     1
102
RTVSPropertyOp16
 70
     1
102
RTVSPropertyOp17
 70
     1
102
RTVSPropertyOp18
 70
     1
102
RTVSPropertyOp19
 70
     1
102
RTVSPropertyOp20
 70
     1
102
RTVSPropertyOp21
 70
     1
102
RTVSPropertyOp22
 70
     1
102
RTVSPropertyOp23
 70
     1
102
RTVSPropertyOp24
 70
     1
102
RTVSPropertyOp25
 70
     1
102
RTVSPropertyOp26
 70
     1
102
RTVSPropertyOp27
 70
     1
102
RTVSPropertyOp28
 70
     1
102
RTVSPropertyOp29
 70
     1
102
RTVSPropertyOp30
 70
     1
102
RTVSPropertyOp31
 70
     1
102
RTVSPropertyOp32
 70
     1
  0
XRECORD
  5
15AC
102
{ACAD_REACTORS
330
15AB
102
}
330
15AB
100
AcDbXrecord
280
     1
102
RTVSPropertyOp0
 70
     1
102
RTVSPropertyOp1
 70
     1
102
RTVSPropertyOp2
 70
     1
102
RTVSPropertyOp3
 70
     1
102
RTVSPropertyOp4
 70
     1
102
RTVSPropertyOp5
 70
     1
102
RTVSPropertyOp6
 70
     1
102
RTVSPropertyOp7
 70
     1
102
RTVSPropertyOp8
 70
     1
102
RTVSPropertyOp9
 70
     1
102
RTVSPropertyOp10
 70
     1
102
RTVSPropertyOp11
 70
     1
102
RTVSPropertyOp12
 70
     1
102
RTVSPropertyOp13
 70
     1
102
RTVSPropertyOp14
 70
     1
102
RTVSPropertyOp15
 70
     1
102
RTVSPropertyOp16
 70
     1
102
RTVSPropertyOp17
 70
     1
102
RTVSPropertyOp18
 70
     1
102
RTVSPropertyOp19
 70
     1
102
RTVSPropertyOp20
 70
     1
102
RTVSPropertyOp21
 70
     1
102
RTVSPropertyOp22
 70
     1
102
RTVSPropertyOp23
 70
     1
102
RTVSPropertyOp24
 70
     1
102
RTVSPropertyOp25
 70
     1
102
RTVSPropertyOp26
 70
     1
102
RTVSPropertyOp27
 70
     1
102
RTVSPropertyOp28
 70
     1
102
RTVSPropertyOp29
 70
     1
102
RTVSPropertyOp30
 70
     1
102
RTVSPropertyOp31
 70
     1
102
RTVSPropertyOp32
 70
     1
  0
XRECORD
  5
15AE
102
{ACAD_REACTORS
330
15AD
102
}
330
15AD
100
AcDbXrecord
280
     1
102
RTVSPropertyOp0
 70
     1
102
RTVSPropertyOp1
 70
     1
102
RTVSPropertyOp2
 70
     1
102
RTVSPropertyOp3
 70
     1
102
RTVSPropertyOp4
 70
     1
102
RTVSPropertyOp5
 70
     1
102
RTVSPropertyOp6
 70
     1
102
RTVSPropertyOp7
 70
     1
102
RTVSPropertyOp8
 70
     1
102
RTVSPropertyOp9
 70
     1
102
RTVSPropertyOp10
 70
     1
102
RTVSPropertyOp11
 70
     1
102
RTVSPropertyOp12
 70
     1
102
RTVSPropertyOp13
 70
     1
102
RTVSPropertyOp14
 70
     1
102
RTVSPropertyOp15
 70
     1
102
RTVSPropertyOp16
 70
     1
102
RTVSPropertyOp17
 70
     1
102
RTVSPropertyOp18
 70
     1
102
RTVSPropertyOp19
 70
     1
102
RTVSPropertyOp20
 70
     1
102
RTVSPropertyOp21
 70
     1
102
RTVSPropertyOp22
 70
     1
102
RTVSPropertyOp23
 70
     1
102
RTVSPropertyOp24
 70
     1
102
RTVSPropertyOp25
 70
     1
102
RTVSPropertyOp26
 70
     1
102
RTVSPropertyOp27
 70
     1
102
RTVSPropertyOp28
 70
     1
102
RTVSPropertyOp29
 70
     1
102
RTVSPropertyOp30
 70
     1
102
RTVSPropertyOp31
 70
     1
102
RTVSPropertyOp32
 70
     1
  0
XRECORD
  5
15B0
102
{ACAD_REACTORS
330
15AF
102
}
330
15AF
100
AcDbXrecord
280
     1
102
RTVSPropertyOp0
 70
     1
102
RTVSPropertyOp1
 70
     1
102
RTVSPropertyOp2
 70
     1
102
RTVSPropertyOp3
 70
     1
102
RTVSPropertyOp4
 70
     1
102
RTVSPropertyOp5
 70
     1
102
RTVSPropertyOp6
 70
     1
102
RTVSPropertyOp7
 70
     1
102
RTVSPropertyOp8
 70
     1
102
RTVSPropertyOp9
 70
     1
102
RTVSPropertyOp10
 70
     1
102
RTVSPropertyOp11
 70
     1
102
RTVSPropertyOp12
 70
     1
102
RTVSPropertyOp13
 70
     1
102
RTVSPropertyOp14
 70
     1
102
RTVSPropertyOp15
 70
     1
102
RTVSPropertyOp16
 70
     1
102
RTVSPropertyOp17
 70
     1
102
RTVSPropertyOp18
 70
     1
102
RTVSPropertyOp19
 70
     1
102
RTVSPropertyOp20
 70
     1
102
RTVSPropertyOp21
 70
     1
102
RTVSPropertyOp22
 70
     1
102
RTVSPropertyOp23
 70
     1
102
RTVSPropertyOp24
 70
     1
102
RTVSPropertyOp25
 70
     1
102
RTVSPropertyOp26
 70
     1
102
RTVSPropertyOp27
 70
     1
102
RTVSPropertyOp28
 70
     1
102
RTVSPropertyOp29
 70
     1
102
RTVSPropertyOp30
 70
     1
102
RTVSPropertyOp31
 70
     1
102
RTVSPropertyOp32
 70
     1
  0
XRECORD
  5
15B2
102
{ACAD_REACTORS
330
15B1
102
}
330
15B1
100
AcDbXrecord
280
     1
102
RTVSPropertyOp0
 70
     1
102
RTVSPropertyOp1
 70
     1
102
RTVSPropertyOp2
 70
     1
102
RTVSPropertyOp3
 70
     1
102
RTVSPropertyOp4
 70
     1
102
RTVSPropertyOp5
 70
     1
102
RTVSPropertyOp6
 70
     1
102
RTVSPropertyOp7
 70
     1
102
RTVSPropertyOp8
 70
     1
102
RTVSPropertyOp9
 70
     1
102
RTVSPropertyOp10
 70
     1
102
RTVSPropertyOp11
 70
     1
102
RTVSPropertyOp12
 70
     1
102
RTVSPropertyOp13
 70
     1
102
RTVSPropertyOp14
 70
     1
102
RTVSPropertyOp15
 70
     1
102
RTVSPropertyOp16
 70
     1
102
RTVSPropertyOp17
 70
     1
102
RTVSPropertyOp18
 70
     1
102
RTVSPropertyOp19
 70
     1
102
RTVSPropertyOp20
 70
     1
102
RTVSPropertyOp21
 70
     1
102
RTVSPropertyOp22
 70
     1
102
RTVSPropertyOp23
 70
     1
102
RTVSPropertyOp24
 70
     1
102
RTVSPropertyOp25
 70
     1
102
RTVSPropertyOp26
 70
     1
102
RTVSPropertyOp27
 70
     1
102
RTVSPropertyOp28
 70
     1
102
RTVSPropertyOp29
 70
     1
102
RTVSPropertyOp30
 70
     1
102
RTVSPropertyOp31
 70
     1
102
RTVSPropertyOp32
 70
     1
  0
XRECORD
  5
15CE
102
{ACAD_REACTORS
330
15CD
102
}
330
15CD
100
AcDbXrecord
280
     1
102
RTVSPropertyOp0
 70
     1
102
RTVSPropertyOp1
 70
     1
102
RTVSPropertyOp2
 70
     1
102
RTVSPropertyOp3
 70
     1
102
RTVSPropertyOp4
 70
     1
102
RTVSPropertyOp5
 70
     1
102
RTVSPropertyOp6
 70
     1
102
RTVSPropertyOp7
 70
     1
102
RTVSPropertyOp8
 70
     1
102
RTVSPropertyOp9
 70
     1
102
RTVSPropertyOp10
 70
     1
102
RTVSPropertyOp11
 70
     1
102
RTVSPropertyOp12
 70
     1
102
RTVSPropertyOp13
 70
     1
102
RTVSPropertyOp14
 70
     1
102
RTVSPropertyOp15
 70
     1
102
RTVSPropertyOp16
 70
     1
102
RTVSPropertyOp17
 70
     1
102
RTVSPropertyOp18
 70
     1
102
RTVSPropertyOp19
 70
     1
102
RTVSPropertyOp20
 70
     1
102
RTVSPropertyOp21
 70
     1
102
RTVSPropertyOp22
 70
     1
102
RTVSPropertyOp23
 70
     1
102
RTVSPropertyOp24
 70
     1
102
RTVSPropertyOp25
 70
     1
102
RTVSPropertyOp26
 70
     1
102
RTVSPropertyOp27
 70
     1
102
RTVSPropertyOp28
 70
     1
102
RTVSPropertyOp29
 70
     1
102
RTVSPropertyOp30
 70
     1
102
RTVSPropertyOp31
 70
     1
102
RTVSPropertyOp32
 70
     1
  0
XRECORD
  5
15DA
102
{ACAD_REACTORS
330
15D9
102
}
330
15D9
100
AcDbXrecord
280
     1
102
RTVSPropertyOp0
 70
     0
102
RTVSPropertyOp1
 70
     0
102
RTVSPropertyOp2
 70
     0
102
RTVSPropertyOp3
 70
     0
102
RTVSPropertyOp4
 70
     0
102
RTVSPropertyOp5
 70
     0
102
RTVSPropertyOp6
 70
     0
102
RTVSPropertyOp7
 70
     0
102
RTVSPropertyOp8
 70
     0
102
RTVSPropertyOp9
 70
     0
102
RTVSPropertyOp10
 70
     0
102
RTVSPropertyOp11
 70
     0
102
RTVSPropertyOp12
 70
     0
102
RTVSPropertyOp13
 70
     0
102
RTVSPropertyOp14
 70
     2
102
RTVSPropertyOp15
 70
     0
102
RTVSPropertyOp16
 70
     0
102
RTVSPropertyOp17
 70
     0
102
RTVSPropertyOp18
 70
     0
102
RTVSPropertyOp19
 70
     0
102
RTVSPropertyOp20
 70
     0
102
RTVSPropertyOp21
 70
     0
102
RTVSPropertyOp22
 70
     0
102
RTVSPropertyOp23
 70
     0
102
RTVSPropertyOp24
 70
     0
102
RTVSPropertyOp25
 70
     0
102
RTVSPropertyOp26
 70
     0
102
RTVSPropertyOp27
 70
     0
102
RTVSPropertyOp28
 70
     1
102
RTVSPropertyOp29
 70
     1
102
RTVSPropertyOp30
 70
     1
102
RTVSPropertyOp31
 70
     1
102
RTVSPropertyOp32
 70
     1
  0
XRECORD
  5
15C6
102
{ACAD_REACTORS
330
15C5
102
}
330
15C5
100
AcDbXrecord
280
     1
102
RTVSPropertyOp0
 70
     1
102
RTVSPropertyOp1
 70
     1
102
RTVSPropertyOp2
 70
     1
102
RTVSPropertyOp3
 70
     1
102
RTVSPropertyOp4
 70
     1
102
RTVSPropertyOp5
 70
     1
102
RTVSPropertyOp6
 70
     1
102
RTVSPropertyOp7
 70
     1
102
RTVSPropertyOp8
 70
     1
102
RTVSPropertyOp9
 70
     1
102
RTVSPropertyOp10
 70
     1
102
RTVSPropertyOp11
 70
     1
102
RTVSPropertyOp12
 70
     1
102
RTVSPropertyOp13
 70
     1
102
RTVSPropertyOp14
 70
     1
102
RTVSPropertyOp15
 70
     1
102
RTVSPropertyOp16
 70
     1
102
RTVSPropertyOp17
 70
     1
102
RTVSPropertyOp18
 70
     1
102
RTVSPropertyOp19
 70
     1
102
RTVSPropertyOp20
 70
     1
102
RTVSPropertyOp21
 70
     1
102
RTVSPropertyOp22
 70
     1
102
RTVSPropertyOp23
 70
     1
102
RTVSPropertyOp24
 70
     1
102
RTVSPropertyOp25
 70
     1
102
RTVSPropertyOp26
 70
     1
102
RTVSPropertyOp27
 70
     1
102
RTVSPropertyOp28
 70
     1
102
RTVSPropertyOp29
 70
     1
102
RTVSPropertyOp30
 70
     1
102
RTVSPropertyOp31
 70
     1
102
RTVSPropertyOp32
 70
     1
  0
XRECORD
  5
15DC
102
{ACAD_REACTORS
330
15DB
102
}
330
15DB
100
AcDbXrecord
280
     1
102
RTVSPropertyOp0
 70
     0
102
RTVSPropertyOp1
 70
     0
102
RTVSPropertyOp2
 70
     0
102
RTVSPropertyOp3
 70
     0
102
RTVSPropertyOp4
 70
     0
102
RTVSPropertyOp5
 70
     0
102
RTVSPropertyOp6
 70
     0
102
RTVSPropertyOp7
 70
     0
102
RTVSPropertyOp8
 70
     0
102
RTVSPropertyOp9
 70
     0
102
RTVSPropertyOp10
 70
     0
102
RTVSPropertyOp11
 70
     0
102
RTVSPropertyOp12
 70
     0
102
RTVSPropertyOp13
 70
     0
102
RTVSPropertyOp14
 70
     2
102
RTVSPropertyOp15
 70
     0
102
RTVSPropertyOp16
 70
     0
102
RTVSPropertyOp17
 70
     0
102
RTVSPropertyOp18
 70
     0
102
RTVSPropertyOp19
 70
     0
102
RTVSPropertyOp20
 70
     0
102
RTVSPropertyOp21
 70
     0
102
RTVSPropertyOp22
 70
     0
102
RTVSPropertyOp23
 70
     0
102
RTVSPropertyOp24
 70
     0
102
RTVSPropertyOp25
 70
     0
102
RTVSPropertyOp26
 70
     0
102
RTVSPropertyOp27
 70
     0
102
RTVSPropertyOp28
 70
     1
102
RTVSPropertyOp29
 70
     1
102
RTVSPropertyOp30
 70
     1
102
RTVSPropertyOp31
 70
     1
102
RTVSPropertyOp32
 70
     1
  0
XRECORD
  5
15BE
102
{ACAD_REACTORS
330
15BD
102
}
330
15BD
100
AcDbXrecord
280
     1
102
RTVSPropertyOp0
 70
     1
102
RTVSPropertyOp1
 70
     1
102
RTVSPropertyOp2
 70
     1
102
RTVSPropertyOp3
 70
     1
102
RTVSPropertyOp4
 70
     1
102
RTVSPropertyOp5
 70
     1
102
RTVSPropertyOp6
 70
     1
102
RTVSPropertyOp7
 70
     1
102
RTVSPropertyOp8
 70
     1
102
RTVSPropertyOp9
 70
     1
102
RTVSPropertyOp10
 70
     1
102
RTVSPropertyOp11
 70
     1
102
RTVSPropertyOp12
 70
     1
102
RTVSPropertyOp13
 70
     1
102
RTVSPropertyOp14
 70
     1
102
RTVSPropertyOp15
 70
     1
102
RTVSPropertyOp16
 70
     1
102
RTVSPropertyOp17
 70
     1
102
RTVSPropertyOp18
 70
     1
102
RTVSPropertyOp19
 70
     1
102
RTVSPropertyOp20
 70
     1
102
RTVSPropertyOp21
 70
     1
102
RTVSPropertyOp22
 70
     1
102
RTVSPropertyOp23
 70
     1
102
RTVSPropertyOp24
 70
     1
102
RTVSPropertyOp25
 70
     1
102
RTVSPropertyOp26
 70
     1
102
RTVSPropertyOp27
 70
     1
102
RTVSPropertyOp28
 70
     1
102
RTVSPropertyOp29
 70
     1
102
RTVSPropertyOp30
 70
     1
102
RTVSPropertyOp31
 70
     1
102
RTVSPropertyOp32
 70
     1
  0
XRECORD
  5
15D8
102
{ACAD_REACTORS
330
15D7
102
}
330
15D7
100
AcDbXrecord
280
     1
102
RTVSPropertyOp0
 70
     1
102
RTVSPropertyOp1
 70
     1
102
RTVSPropertyOp2
 70
     1
102
RTVSPropertyOp3
 70
     1
102
RTVSPropertyOp4
 70
     1
102
RTVSPropertyOp5
 70
     1
102
RTVSPropertyOp6
 70
     1
102
RTVSPropertyOp7
 70
     1
102
RTVSPropertyOp8
 70
     1
102
RTVSPropertyOp9
 70
     1
102
RTVSPropertyOp10
 70
     1
102
RTVSPropertyOp11
 70
     1
102
RTVSPropertyOp12
 70
     1
102
RTVSPropertyOp13
 70
     1
102
RTVSPropertyOp14
 70
     1
102
RTVSPropertyOp15
 70
     1
102
RTVSPropertyOp16
 70
     1
102
RTVSPropertyOp17
 70
     1
102
RTVSPropertyOp18
 70
     1
102
RTVSPropertyOp19
 70
     1
102
RTVSPropertyOp20
 70
     1
102
RTVSPropertyOp21
 70
     1
102
RTVSPropertyOp22
 70
     1
102
RTVSPropertyOp23
 70
     1
102
RTVSPropertyOp24
 70
     1
102
RTVSPropertyOp25
 70
     1
102
RTVSPropertyOp26
 70
     1
102
RTVSPropertyOp27
 70
     1
102
RTVSPropertyOp28
 70
     1
102
RTVSPropertyOp29
 70
     1
102
RTVSPropertyOp30
 70
     1
102
RTVSPropertyOp31
 70
     1
102
RTVSPropertyOp32
 70
     1
  0
XRECORD
  5
15D6
102
{ACAD_REACTORS
330
15D5
102
}
330
15D5
100
AcDbXrecord
280
     1
102
RTVSPropertyOp0
 70
     1
102
RTVSPropertyOp1
 70
     1
102
RTVSPropertyOp2
 70
     1
102
RTVSPropertyOp3
 70
     1
102
RTVSPropertyOp4
 70
     1
102
RTVSPropertyOp5
 70
     1
102
RTVSPropertyOp6
 70
     1
102
RTVSPropertyOp7
 70
     1
102
RTVSPropertyOp8
 70
     1
102
RTVSPropertyOp9
 70
     1
102
RTVSPropertyOp10
 70
     1
102
RTVSPropertyOp11
 70
     1
102
RTVSPropertyOp12
 70
     1
102
RTVSPropertyOp13
 70
     1
102
RTVSPropertyOp14
 70
     1
102
RTVSPropertyOp15
 70
     1
102
RTVSPropertyOp16
 70
     1
102
RTVSPropertyOp17
 70
     1
102
RTVSPropertyOp18
 70
     1
102
RTVSPropertyOp19
 70
     1
102
RTVSPropertyOp20
 70
     1
102
RTVSPropertyOp21
 70
     1
102
RTVSPropertyOp22
 70
     1
102
RTVSPropertyOp23
 70
     1
102
RTVSPropertyOp24
 70
     1
102
RTVSPropertyOp25
 70
     1
102
RTVSPropertyOp26
 70
     1
102
RTVSPropertyOp27
 70
     1
102
RTVSPropertyOp28
 70
     1
102
RTVSPropertyOp29
 70
     1
102
RTVSPropertyOp30
 70
     1
102
RTVSPropertyOp31
 70
     1
102
RTVSPropertyOp32
 70
     1
  0
XRECORD
  5
15D0
102
{ACAD_REACTORS
330
15CF
102
}
330
15CF
100
AcDbXrecord
280
     1
102
RTVSPropertyOp0
 70
     1
102
RTVSPropertyOp1
 70
     1
102
RTVSPropertyOp2
 70
     1
102
RTVSPropertyOp3
 70
     1
102
RTVSPropertyOp4
 70
     1
102
RTVSPropertyOp5
 70
     1
102
RTVSPropertyOp6
 70
     1
102
RTVSPropertyOp7
 70
     1
102
RTVSPropertyOp8
 70
     1
102
RTVSPropertyOp9
 70
     1
102
RTVSPropertyOp10
 70
     1
102
RTVSPropertyOp11
 70
     1
102
RTVSPropertyOp12
 70
     1
102
RTVSPropertyOp13
 70
     1
102
RTVSPropertyOp14
 70
     1
102
RTVSPropertyOp15
 70
     1
102
RTVSPropertyOp16
 70
     1
102
RTVSPropertyOp17
 70
     1
102
RTVSPropertyOp18
 70
     1
102
RTVSPropertyOp19
 70
     1
102
RTVSPropertyOp20
 70
     1
102
RTVSPropertyOp21
 70
     1
102
RTVSPropertyOp22
 70
     1
102
RTVSPropertyOp23
 70
     1
102
RTVSPropertyOp24
 70
     1
102
RTVSPropertyOp25
 70
     1
102
RTVSPropertyOp26
 70
     1
102
RTVSPropertyOp27
 70
     1
102
RTVSPropertyOp28
 70
     1
102
RTVSPropertyOp29
 70
     1
102
RTVSPropertyOp30
 70
     1
102
RTVSPropertyOp31
 70
     1
102
RTVSPropertyOp32
 70
     1
  0
XRECORD
  5
15D2
102
{ACAD_REACTORS
330
15D1
102
}
330
15D1
100
AcDbXrecord
280
     1
102
RTVSPropertyOp0
 70
     1
102
RTVSPropertyOp1
 70
     1
102
RTVSPropertyOp2
 70
     1
102
RTVSPropertyOp3
 70
     1
102
RTVSPropertyOp4
 70
     1
102
RTVSPropertyOp5
 70
     1
102
RTVSPropertyOp6
 70
     1
102
RTVSPropertyOp7
 70
     1
102
RTVSPropertyOp8
 70
     1
102
RTVSPropertyOp9
 70
     1
102
RTVSPropertyOp10
 70
     1
102
RTVSPropertyOp11
 70
     1
102
RTVSPropertyOp12
 70
     1
102
RTVSPropertyOp13
 70
     1
102
RTVSPropertyOp14
 70
     1
102
RTVSPropertyOp15
 70
     1
102
RTVSPropertyOp16
 70
     1
102
RTVSPropertyOp17
 70
     1
102
RTVSPropertyOp18
 70
     1
102
RTVSPropertyOp19
 70
     1
102
RTVSPropertyOp20
 70
     1
102
RTVSPropertyOp21
 70
     1
102
RTVSPropertyOp22
 70
     1
102
RTVSPropertyOp23
 70
     1
102
RTVSPropertyOp24
 70
     1
102
RTVSPropertyOp25
 70
     1
102
RTVSPropertyOp26
 70
     1
102
RTVSPropertyOp27
 70
     1
102
RTVSPropertyOp28
 70
     1
102
RTVSPropertyOp29
 70
     1
102
RTVSPropertyOp30
 70
     1
102
RTVSPropertyOp31
 70
     1
102
RTVSPropertyOp32
 70
     1
  0
XRECORD
  5
15C4
102
{ACAD_REACTORS
330
15C3
102
}
330
15C3
100
AcDbXrecord
280
     1
102
RTVSPropertyOp0
 70
     1
102
RTVSPropertyOp1
 70
     1
102
RTVSPropertyOp2
 70
     1
102
RTVSPropertyOp3
 70
     1
102
RTVSPropertyOp4
 70
     1
102
RTVSPropertyOp5
 70
     1
102
RTVSPropertyOp6
 70
     1
102
RTVSPropertyOp7
 70
     1
102
RTVSPropertyOp8
 70
     1
102
RTVSPropertyOp9
 70
     1
102
RTVSPropertyOp10
 70
     1
102
RTVSPropertyOp11
 70
     1
102
RTVSPropertyOp12
 70
     1
102
RTVSPropertyOp13
 70
     1
102
RTVSPropertyOp14
 70
     1
102
RTVSPropertyOp15
 70
     1
102
RTVSPropertyOp16
 70
     1
102
RTVSPropertyOp17
 70
     1
102
RTVSPropertyOp18
 70
     1
102
RTVSPropertyOp19
 70
     1
102
RTVSPropertyOp20
 70
     1
102
RTVSPropertyOp21
 70
     1
102
RTVSPropertyOp22
 70
     1
102
RTVSPropertyOp23
 70
     1
102
RTVSPropertyOp24
 70
     1
102
RTVSPropertyOp25
 70
     1
102
RTVSPropertyOp26
 70
     1
102
RTVSPropertyOp27
 70
     1
102
RTVSPropertyOp28
 70
     1
102
RTVSPropertyOp29
 70
     1
102
RTVSPropertyOp30
 70
     1
102
RTVSPropertyOp31
 70
     1
102
RTVSPropertyOp32
 70
     1
  0
XRECORD
  5
15CC
102
{ACAD_REACTORS
330
15CB
102
}
330
15CB
100
AcDbXrecord
280
     1
102
RTVSPropertyOp0
 70
     1
102
RTVSPropertyOp1
 70
     1
102
RTVSPropertyOp2
 70
     1
102
RTVSPropertyOp3
 70
     1
102
RTVSPropertyOp4
 70
     1
102
RTVSPropertyOp5
 70
     1
102
RTVSPropertyOp6
 70
     1
102
RTVSPropertyOp7
 70
     1
102
RTVSPropertyOp8
 70
     1
102
RTVSPropertyOp9
 70
     1
102
RTVSPropertyOp10
 70
     1
102
RTVSPropertyOp11
 70
     1
102
RTVSPropertyOp12
 70
     1
102
RTVSPropertyOp13
 70
     1
102
RTVSPropertyOp14
 70
     1
102
RTVSPropertyOp15
 70
     1
102
RTVSPropertyOp16
 70
     1
102
RTVSPropertyOp17
 70
     1
102
RTVSPropertyOp18
 70
     1
102
RTVSPropertyOp19
 70
     1
102
RTVSPropertyOp20
 70
     1
102
RTVSPropertyOp21
 70
     1
102
RTVSPropertyOp22
 70
     1
102
RTVSPropertyOp23
 70
     1
102
RTVSPropertyOp24
 70
     1
102
RTVSPropertyOp25
 70
     1
102
RTVSPropertyOp26
 70
     1
102
RTVSPropertyOp27
 70
     1
102
RTVSPropertyOp28
 70
     1
102
RTVSPropertyOp29
 70
     1
102
RTVSPropertyOp30
 70
     1
102
RTVSPropertyOp31
 70
     1
102
RTVSPropertyOp32
 70
     1
  0
XRECORD
  5
15D4
102
{ACAD_REACTORS
330
15D3
102
}
330
15D3
100
AcDbXrecord
280
     1
102
RTVSPropertyOp0
 70
     1
102
RTVSPropertyOp1
 70
     1
102
RTVSPropertyOp2
 70
     1
102
RTVSPropertyOp3
 70
     1
102
RTVSPropertyOp4
 70
     1
102
RTVSPropertyOp5
 70
     1
102
RTVSPropertyOp6
 70
     1
102
RTVSPropertyOp7
 70
     1
102
RTVSPropertyOp8
 70
     1
102
RTVSPropertyOp9
 70
     1
102
RTVSPropertyOp10
 70
     1
102
RTVSPropertyOp11
 70
     1
102
RTVSPropertyOp12
 70
     1
102
RTVSPropertyOp13
 70
     1
102
RTVSPropertyOp14
 70
     1
102
RTVSPropertyOp15
 70
     1
102
RTVSPropertyOp16
 70
     1
102
RTVSPropertyOp17
 70
     1
102
RTVSPropertyOp18
 70
     1
102
RTVSPropertyOp19
 70
     1
102
RTVSPropertyOp20
 70
     1
102
RTVSPropertyOp21
 70
     1
102
RTVSPropertyOp22
 70
     1
102
RTVSPropertyOp23
 70
     1
102
RTVSPropertyOp24
 70
     1
102
RTVSPropertyOp25
 70
     1
102
RTVSPropertyOp26
 70
     1
102
RTVSPropertyOp27
 70
     1
102
RTVSPropertyOp28
 70
     1
102
RTVSPropertyOp29
 70
     1
102
RTVSPropertyOp30
 70
     1
102
RTVSPropertyOp31
 70
     1
102
RTVSPropertyOp32
 70
     1
  0
ENDSEC
  0
EOF
