  0
SECTION
  2
HEADER
  9
$ACADVER
  1
AC1015
  9
$ACADMAINTVER
 70
    20
  9
$DWGCODEPAGE
  3
ANSI_932
  9
$INSBASE
 10
0.0
 20
0.0
 30
0.0
  9
$EXTMIN
 10
-476.1746889509056
 20
-89.81370767799388
 30
-0.0015258207003583
  9
$EXTMAX
 10
-199.1272393027868
 20
98.67649800916446
 30
0.0000000349246037
  9
$LIMMIN
 10
-138.501
 20
-90.00100000000001
  9
$LIMMAX
 10
138.501
 20
97.54918700000001
  9
$ORTHOMODE
 70
     1
  9
$REGENMODE
 70
     1
  9
$FILLMODE
 70
     1
  9
$QTEXTMODE
 70
     0
  9
$MIRRTEXT
 70
     0
  9
$LTSCALE
 40
4.616666999999998
  9
$ATTMODE
 70
     1
  9
$TEXTSIZE
 40
0.2
  9
$TRACEWID
 40
0.05
  9
$TEXTSTYLE
  7
STANDARD
  9
$CLAYER
  8
0
  9
$CELTYPE
  6
CONTINUOUS
  9
$CECOLOR
 62
   256
  9
$CELTSCALE
 40
1.0
  9
$DISPSILH
 70
     0
  9
$DIMSCALE
 40
1.0
  9
$DIMASZ
 40
0.18
  9
$DIMEXO
 40
0.0625
  9
$DIMDLI
 40
0.38
  9
$DIMRND
 40
0.0
  9
$DIMDLE
 40
0.0
  9
$DIMEXE
 40
0.18
  9
$DIMTP
 40
0.0
  9
$DIMTM
 40
0.0
  9
$DIMTXT
 40
0.18
  9
$DIMCEN
 40
0.09
  9
$DIMTSZ
 40
0.0
  9
$DIMTOL
 70
     0
  9
$DIMLIM
 70
     0
  9
$DIMTIH
 70
     1
  9
$DIMTOH
 70
     1
  9
$DIMSE1
 70
     0
  9
$DIMSE2
 70
     0
  9
$DIMTAD
 70
     0
  9
$DIMZIN
 70
     0
  9
$DIMBLK
  1

  9
$DIMASO
 70
     1
  9
$DIMSHO
 70
     1
  9
$DIMPOST
  1

  9
$DIMAPOST
  1

  9
$DIMALT
 70
     0
  9
$DIMALTD
 70
     2
  9
$DIMALTF
 40
25.4
  9
$DIMLFAC
 40
1.0
  9
$DIMTOFL
 70
     0
  9
$DIMTVP
 40
0.0
  9
$DIMTIX
 70
     0
  9
$DIMSOXD
 70
     0
  9
$DIMSAH
 70
     0
  9
$DIMBLK1
  1

  9
$DIMBLK2
  1

  9
$DIMSTYLE
  2
Standard
  9
$DIMCLRD
 70
     0
  9
$DIMCLRE
 70
     0
  9
$DIMCLRT
 70
     0
  9
$DIMTFAC
 40
1.0
  9
$DIMGAP
 40
0.09
  9
$DIMJUST
 70
     0
  9
$DIMSD1
 70
     0
  9
$DIMSD2
 70
     0
  9
$DIMTOLJ
 70
     1
  9
$DIMTZIN
 70
     0
  9
$DIMALTZ
 70
     0
  9
$DIMALTTZ
 70
     0
  9
$DIMUPT
 70
     0
  9
$DIMDEC
 70
     4
  9
$DIMTDEC
 70
     4
  9
$DIMALTU
 70
     2
  9
$DIMALTTD
 70
     2
  9
$DIMTXSTY
  7
STANDARD
  9
$DIMAUNIT
 70
     0
  9
$DIMADEC
 70
     0
  9
$DIMALTRND
 40
0.0
  9
$DIMAZIN
 70
     0
  9
$DIMDSEP
 70
    46
  9
$DIMATFIT
 70
     3
  9
$DIMFRAC
 70
     0
  9
$DIMLDRBLK
  1

  9
$DIMLUNIT
 70
     2
  9
$DIMLWD
 70
    -2
  9
$DIMLWE
 70
    -2
  9
$DIMTMOVE
 70
     0
  9
$LUNITS
 70
     2
  9
$LUPREC
 70
     4
  9
$SKETCHINC
 40
0.1
  9
$FILLETRAD
 40
0.0
  9
$AUNITS
 70
     0
  9
$AUPREC
 70
     0
  9
$MENU
  1
.
  9
$ELEVATION
 40
0.0
  9
$PELEVATION
 40
0.0
  9
$THICKNESS
 40
0.0
  9
$LIMCHECK
 70
     0
  9
$CHAMFERA
 40
0.0
  9
$CHAMFERB
 40
0.0
  9
$CHAMFERC
 40
0.0
  9
$CHAMFERD
 40
0.0
  9
$SKPOLY
 70
     0
  9
$TDCREATE
 40
2456321.780983322
  9
$TDUCREATE
 40
2456321.405983322
  9
$TDUPDATE
 40
2457233.565515255
  9
$TDUUPDATE
 40
2457233.190515255
  9
$TDINDWG
 40
0.0142931366
  9
$TDUSRTIMER
 40
0.0142864583
  9
$USRTIMER
 70
     1
  9
$ANGBASE
 50
0.0
  9
$ANGDIR
 70
     0
  9
$PDMODE
 70
     0
  9
$PDSIZE
 40
0.0
  9
$PLINEWID
 40
0.0
  9
$SPLFRAME
 70
     0
  9
$SPLINETYPE
 70
     6
  9
$SPLINESEGS
 70
     8
  9
$HANDSEED
  5
802
  9
$SURFTAB1
 70
     6
  9
$SURFTAB2
 70
     6
  9
$SURFTYPE
 70
     6
  9
$SURFU
 70
     6
  9
$SURFV
 70
     6
  9
$UCSBASE
  2

  9
$UCSNAME
  2

  9
$UCSORG
 10
0.0
 20
0.0
 30
0.0
  9
$UCSXDIR
 10
1.0
 20
0.0
 30
0.0
  9
$UCSYDIR
 10
0.0
 20
1.0
 30
0.0
  9
$UCSORTHOREF
  2

  9
$UCSORTHOVIEW
 70
     0
  9
$UCSORGTOP
 10
0.0
 20
0.0
 30
0.0
  9
$UCSORGBOTTOM
 10
0.0
 20
0.0
 30
0.0
  9
$UCSORGLEFT
 10
0.0
 20
0.0
 30
0.0
  9
$UCSORGRIGHT
 10
0.0
 20
0.0
 30
0.0
  9
$UCSORGFRONT
 10
0.0
 20
0.0
 30
0.0
  9
$UCSORGBACK
 10
0.0
 20
0.0
 30
0.0
  9
$PUCSBASE
  2

  9
$PUCSNAME
  2

  9
$PUCSORG
 10
0.0
 20
0.0
 30
0.0
  9
$PUCSXDIR
 10
1.0
 20
0.0
 30
0.0
  9
$PUCSYDIR
 10
0.0
 20
1.0
 30
0.0
  9
$PUCSORTHOREF
  2

  9
$PUCSORTHOVIEW
 70
     0
  9
$PUCSORGTOP
 10
0.0
 20
0.0
 30
0.0
  9
$PUCSORGBOTTOM
 10
0.0
 20
0.0
 30
0.0
  9
$PUCSORGLEFT
 10
0.0
 20
0.0
 30
0.0
  9
$PUCSORGRIGHT
 10
0.0
 20
0.0
 30
0.0
  9
$PUCSORGFRONT
 10
0.0
 20
0.0
 30
0.0
  9
$PUCSORGBACK
 10
0.0
 20
0.0
 30
0.0
  9
$USERI1
 70
     0
  9
$USERI2
 70
     0
  9
$USERI3
 70
     0
  9
$USERI4
 70
     0
  9
$USERI5
 70
     0
  9
$USERR1
 40
0.0
  9
$USERR2
 40
0.0
  9
$USERR3
 40
0.0
  9
$USERR4
 40
0.0
  9
$USERR5
 40
0.0
  9
$WORLDVIEW
 70
     1
  9
$SHADEDGE
 70
     3
  9
$SHADEDIF
 70
    70
  9
$TILEMODE
 70
     1
  9
$MAXACTVP
 70
    64
  9
$PINSBASE
 10
0.0
 20
0.0
 30
0.0
  9
$PLIMCHECK
 70
     0
  9
$PEXTMIN
 10
1.000000000000000E+20
 20
1.000000000000000E+20
 30
1.000000000000000E+20
  9
$PEXTMAX
 10
-1.000000000000000E+20
 20
-1.000000000000000E+20
 30
-1.000000000000000E+20
  9
$PLIMMIN
 10
0.0
 20
0.0
  9
$PLIMMAX
 10
12.0
 20
9.0
  9
$UNITMODE
 70
     0
  9
$VISRETAIN
 70
     1
  9
$PLINEGEN
 70
     0
  9
$PSLTSCALE
 70
     1
  9
$TREEDEPTH
 70
  3020
  9
$CMLSTYLE
  2
Standard
  9
$CMLJUST
 70
     0
  9
$CMLSCALE
 40
1.0
  9
$PROXYGRAPHICS
 70
     1
  9
$MEASUREMENT
 70
     0
  9
$CELWEIGHT
370
    -1
  9
$ENDCAPS
280
     0
  9
$JOINSTYLE
280
     0
  9
$LWDISPLAY
290
     0
  9
$INSUNITS
 70
     0
  9
$HYPERLINKBASE
  1

  9
$STYLESHEET
  1
n-plot.ctb
  9
$XEDIT
290
     1
  9
$CEPSNTYPE
380
     0
  9
$PSTYLEMODE
290
     1
  9
$FINGERPRINTGUID
  2
{812E9CEA-8C18-4D6E-B354-6835CF460743}
  9
$VERSIONGUID
  2
{5EE9658C-7E20-45C0-AE51-9946ADFAA494}
  9
$EXTNAMES
290
     1
  9
$PSVPSCALE
 40
0.0
  9
$OLESTARTUP
290
     0
  0
ENDSEC
  0
SECTION
  2
CLASSES
  0
CLASS
  1
ACDBDICTIONARYWDFLT
  2
AcDbDictionaryWithDefault
  3
ObjectDBX Classes
 90
        0
280
     0
281
     0
  0
CLASS
  1
MATERIAL
  2
AcDbMaterial
  3
ObjectDBX Classes
 90
     1024
280
     0
281
     0
  0
CLASS
  1
VISUALSTYLE
  2
AcDbVisualStyle
  3
ObjectDBX Classes
 90
     4095
280
     0
281
     0
  0
CLASS
  1
SCALE
  2
AcDbScale
  3
ObjectDBX Classes
 90
     1153
280
     0
281
     0
  0
CLASS
  1
TABLESTYLE
  2
AcDbTableStyle
  3
ObjectDBX Classes
 90
     4095
280
     0
281
     0
  0
CLASS
  1
MLEADERSTYLE
  2
AcDbMLeaderStyle
  3
ACDB_MLEADERSTYLE_CLASS
 90
     4095
280
     0
281
     0
  0
CLASS
  1
SORTENTSTABLE
  2
AcDbSortentsTable
  3
ObjectDBX Classes
 90
        0
280
     0
281
     0
  0
CLASS
  1
DICTIONARYVAR
  2
AcDbDictionaryVar
  3
ObjectDBX Classes
 90
        0
280
     0
281
     0
  0
CLASS
  1
CELLSTYLEMAP
  2
AcDbCellStyleMap
  3
ObjectDBX Classes
 90
     1152
280
     0
281
     0
  0
CLASS
  1
ACDBPLACEHOLDER
  2
AcDbPlaceHolder
  3
ObjectDBX Classes
 90
        0
280
     0
281
     0
  0
CLASS
  1
LAYOUT
  2
AcDbLayout
  3
ObjectDBX Classes
 90
        0
280
     0
281
     0
  0
ENDSEC
  0
SECTION
  2
TABLES
  0
TABLE
  2
VPORT
  5
8
330
0
100
AcDbSymbolTable
 70
     1
  0
VPORT
  5
8B
330
8
100
AcDbSymbolTableRecord
100
AcDbViewportTableRecord
  2
*Active
 70
     0
 10
0.0
 20
0.0
 11
1.0
 21
1.0
 12
-341.2834568387291
 22
5.157893516832913
 13
0.0
 23
0.0
 14
1.0
 24
1.0
 15
0.0
 25
0.0
 16
0.0
 26
0.0
 36
1.0
 17
0.0
 27
0.0
 37
0.0
 40
190.5847652391243
 41
1.461245235069885
 42
50.0
 43
0.0
 44
0.0
 50
0.0
 51
0.0
 71
     0
 72
   100
 73
     1
 74
     1
 75
     0
 76
     0
 77
     0
 78
     0
281
     0
 65
     1
110
0.0
120
0.0
130
0.0
111
1.0
121
0.0
131
0.0
112
0.0
122
1.0
132
0.0
 79
     0
146
0.0
  0
ENDTAB
  0
TABLE
  2
LTYPE
  5
5
330
0
100
AcDbSymbolTable
 70
     5
  0
LTYPE
  5
5A
330
5
100
AcDbSymbolTableRecord
100
AcDbLinetypeTableRecord
  2
ByBlock
 70
     0
  3

 72
    65
 73
     0
 40
0.0
  0
LTYPE
  5
5B
330
5
100
AcDbSymbolTableRecord
100
AcDbLinetypeTableRecord
  2
ByLayer
 70
     0
  3

 72
    65
 73
     0
 40
0.0
  0
LTYPE
  5
5C
330
5
100
AcDbSymbolTableRecord
100
AcDbLinetypeTableRecord
  2
CONTINUOUS
 70
     0
  3
Solid-line
 72
    65
 73
     0
 40
0.0
  0
LTYPE
  5
72
330
5
100
AcDbSymbolTableRecord
100
AcDbLinetypeTableRecord
  2
CENTER
 70
     0
  3
CENTER
 72
    65
 73
     4
 40
2.0
 49
1.25
 74
     0
 49
-0.25
 74
     0
 49
0.25
 74
     0
 49
-0.25
 74
     0
  0
LTYPE
  5
78
330
5
100
AcDbSymbolTableRecord
100
AcDbLinetypeTableRecord
  2
DASHED
 70
     0
  3
DASHED
 72
    65
 73
     2
 40
0.75
 49
0.5
 74
     0
 49
-0.25
 74
     0
  0
LTYPE
  5
81
330
5
100
AcDbSymbolTableRecord
100
AcDbLinetypeTableRecord
  2
HIDDEN
 70
     0
  3
HIDDEN
 72
    65
 73
     2
 40
0.375
 49
0.25
 74
     0
 49
-0.125
 74
     0
  0
LTYPE
  5
84
330
5
100
AcDbSymbolTableRecord
100
AcDbLinetypeTableRecord
  2
PHANTOM
 70
     0
  3
PHANTOM
 72
    65
 73
     6
 40
2.5
 49
1.25
 74
     0
 49
-0.25
 74
     0
 49
0.25
 74
     0
 49
-0.25
 74
     0
 49
0.25
 74
     0
 49
-0.25
 74
     0
  0
ENDTAB
  0
TABLE
  2
LAYER
  5
2
102
{ACAD_XDICTIONARY
360
326
102
}
330
0
100
AcDbSymbolTable
 70
     2
  0
LAYER
  5
54
102
{ACAD_XDICTIONARY
360
6A7
102
}
330
2
100
AcDbSymbolTableRecord
100
AcDbLayerTableRecord
  2
0
 70
     0
 62
     7
  6
CONTINUOUS
370
    -3
390
F
  0
LAYER
  5
3FC
330
2
100
AcDbSymbolTableRecord
100
AcDbLayerTableRecord
  2
Defpoints
 70
     0
 62
     7
  6
CONTINUOUS
290
     0
370
    -3
390
F
  0
ENDTAB
  0
TABLE
  2
STYLE
  5
3
330
0
100
AcDbSymbolTable
 70
     8
  0
STYLE
  5
55
330
3
100
AcDbSymbolTableRecord
100
AcDbTextStyleTableRecord
  2
STANDARD
 70
     0
 40
0.0
 41
1.0
 50
0.0
 71
     0
 42
0.2
  3
TXT
  4
BIGFONT
  0
STYLE
  5
31B
330
3
100
AcDbSymbolTableRecord
100
AcDbTextStyleTableRecord
  2
高3.2
 70
     0
 40
3.2
 41
1.0
 50
0.0
 71
     0
 42
3.2
  3
txt.shx
  4
bigfont.shx
  0
STYLE
  5
31C
330
3
100
AcDbSymbolTableRecord
100
AcDbTextStyleTableRecord
  2
高6.3
 70
     0
 40
6.299999999999998
 41
1.0
 50
0.0
 71
     0
 42
6.299999999999998
  3
txt.shx
  4
bigfont.shx
  0
STYLE
  5
31D
330
3
100
AcDbSymbolTableRecord
100
AcDbTextStyleTableRecord
  2
高2.5
 70
     0
 40
2.5
 41
1.0
 50
0.0
 71
     0
 42
0.2
  3
txt.shx
  4
bigfont.shx
  0
STYLE
  5
31E
330
3
100
AcDbSymbolTableRecord
100
AcDbTextStyleTableRecord
  2
高4.5
 70
     0
 40
4.5
 41
1.0
 50
0.0
 71
     0
 42
6.299999999999998
  3
txt.shx
  4
bigfont.shx
  0
STYLE
  5
31F
330
3
100
AcDbSymbolTableRecord
100
AcDbTextStyleTableRecord
  2
高2
 70
     0
 40
2.0
 41
1.0
 50
0.0
 71
     0
 42
6.299999999999998
  3
txt.shx
  4
bigfont.shx
  0
ENDTAB
  0
TABLE
  2
VIEW
  5
6
330
0
100
AcDbSymbolTable
 70
     0
  0
ENDTAB
  0
TABLE
  2
UCS
  5
7
330
0
100
AcDbSymbolTable
 70
     0
  0
ENDTAB
  0
TABLE
  2
APPID
  5
9
330
0
100
AcDbSymbolTable
 70
     8
  0
APPID
  5
56
330
9
100
AcDbSymbolTableRecord
100
AcDbRegAppTableRecord
  2
ACAD
 70
     0
  0
APPID
  5
5D
330
9
100
AcDbSymbolTableRecord
100
AcDbRegAppTableRecord
  2
AcadAnnotative
 70
     0
  0
APPID
  5
325
330
9
100
AcDbSymbolTableRecord
100
AcDbRegAppTableRecord
  2
ACAD_DSTYLE_DIMJOGGED_JOGANGLE_SYMBOL
 70
     0
  0
APPID
  5
4AF
330
9
100
AcDbSymbolTableRecord
100
AcDbRegAppTableRecord
  2
ACAD_EXEMPT_FROM_CAD_STANDARDS
 70
     0
  0
APPID
  5
6E9
330
9
100
AcDbSymbolTableRecord
100
AcDbRegAppTableRecord
  2
ACAD_MLEADERVER
 70
     0
  0
APPID
  5
6EE
330
9
100
AcDbSymbolTableRecord
100
AcDbRegAppTableRecord
  2
ACAD_DSTYLE_DIMARC_LENGTH_SYMBOL
 70
     0
  0
APPID
  5
6EF
330
9
100
AcDbSymbolTableRecord
100
AcDbRegAppTableRecord
  2
ACAD_DSTYLE_DIMEXT_LENGTH
 70
     0
  0
APPID
  5
740
330
9
100
AcDbSymbolTableRecord
100
AcDbRegAppTableRecord
  2
ACAD_PSEXT
 70
     0
  0
ENDTAB
  0
TABLE
  2
DIMSTYLE
  5
A
330
0
100
AcDbSymbolTable
 70
     4
100
AcDbDimStyleTable
 71
     2
340
57
340
320
  0
DIMSTYLE
105
57
330
A
100
AcDbSymbolTableRecord
100
AcDbDimStyleTableRecord
  2
Standard
 70
     0
340
55
  0
DIMSTYLE
105
320
330
A
100
AcDbSymbolTableRecord
100
AcDbDimStyleTableRecord
  2
1：1
 70
     0
 41
2.5
 42
0.25
 43
0.2
 44
1.25
 73
     0
 74
     0
 77
     3
 78
     8
 79
     2
140
3.0
141
0.0
143
0.03937007874016
147
0.625
171
     3
172
     1
178
     4
179
     1
271
     2
272
     2
274
     3
283
     0
284
     8
288
     1
289
     0
340
55
341
241
342
241
1001
ACAD_DSTYLE_DIMARC_LENGTH_SYMBOL
1070
   379
1070
     2
1001
ACAD_DSTYLE_DIMEXT_LENGTH
1070
   378
1040
1.25
1001
ACAD_DSTYLE_DIMJOGGED_JOGANGLE_SYMBOL
1070
   384
1040
1.570796326794896
  0
ENDTAB
  0
TABLE
  2
BLOCK_RECORD
  5
1
330
0
100
AcDbSymbolTable
 70
    11
  0
BLOCK_RECORD
  5
6B
102
{ACAD_XDICTIONARY
360
5FD
102
}
330
1
100
AcDbSymbolTableRecord
100
AcDbBlockTableRecord
  2
*Model_Space
340
6E
  0
BLOCK_RECORD
  5
67
330
1
100
AcDbSymbolTableRecord
100
AcDbBlockTableRecord
  2
*Paper_Space
340
6A
  0
BLOCK_RECORD
  5
241
330
1
100
AcDbSymbolTableRecord
100
AcDbBlockTableRecord
  2
_Open30
340
0
102
{BLKREFS
331
6FB
331
6FC
331
704
331
705
331
70D
331
70E
331
716
331
717
331
71F
331
720
331
726
331
727
331
72E
331
72F
331
739
331
73A
102
}
  0
BLOCK_RECORD
  5
3FD
330
1
100
AcDbSymbolTableRecord
100
AcDbBlockTableRecord
  2
*D1
340
0
  0
BLOCK_RECORD
  5
407
330
1
100
AcDbSymbolTableRecord
100
AcDbBlockTableRecord
  2
*D2
340
0
  0
BLOCK_RECORD
  5
414
330
1
100
AcDbSymbolTableRecord
100
AcDbBlockTableRecord
  2
*D3
340
0
  0
BLOCK_RECORD
  5
421
330
1
100
AcDbSymbolTableRecord
100
AcDbBlockTableRecord
  2
*D4
340
0
  0
BLOCK_RECORD
  5
42E
330
1
100
AcDbSymbolTableRecord
100
AcDbBlockTableRecord
  2
*D5
340
0
  0
BLOCK_RECORD
  5
43B
330
1
100
AcDbSymbolTableRecord
100
AcDbBlockTableRecord
  2
*D6
340
0
  0
BLOCK_RECORD
  5
448
330
1
100
AcDbSymbolTableRecord
100
AcDbBlockTableRecord
  2
*D7
340
0
  0
BLOCK_RECORD
  5
455
330
1
100
AcDbSymbolTableRecord
100
AcDbBlockTableRecord
  2
*D8
340
0
  0
ENDTAB
  0
ENDSEC
  0
SECTION
  2
BLOCKS
  0
BLOCK
  5
6C
330
6B
100
AcDbEntity
  8
0
100
AcDbBlockBegin
  2
*Model_Space
 70
     0
 10
0.0
 20
0.0
 30
0.0
  3
*Model_Space
  1

  0
ENDBLK
  5
6D
330
6B
100
AcDbEntity
  8
0
100
AcDbBlockEnd
  0
BLOCK
  5
68
330
67
100
AcDbEntity
 67
     1
  8
0
100
AcDbBlockBegin
  2
*Paper_Space
 70
     0
 10
0.0
 20
0.0
 30
0.0
  3
*Paper_Space
  1

  0
ENDBLK
  5
69
330
67
100
AcDbEntity
 67
     1
  8
0
100
AcDbBlockEnd
  0
BLOCK
  5
242
330
241
100
AcDbEntity
  8
0
100
AcDbBlockBegin
  2
_Open30
 70
     0
 10
0.0
 20
0.0
 30
0.0
  3
_Open30
  1

  0
LINE
  5
243
330
241
100
AcDbEntity
  8
0
  6
ByBlock
 62
     0
370
    -2
100
AcDbLine
 10
-1.0
 20
0.267949
 30
0.0
 11
0.0
 21
0.0
 31
0.0
  0
LINE
  5
244
330
241
100
AcDbEntity
  8
0
  6
ByBlock
 62
     0
370
    -2
100
AcDbLine
 10
0.0
 20
0.0
 30
0.0
 11
-1.0
 21
-0.267949
 31
0.0
  0
LINE
  5
245
330
241
100
AcDbEntity
  8
0
  6
ByBlock
 62
     0
370
    -2
100
AcDbLine
 10
0.0
 20
0.0
 30
0.0
 11
-1.0
 21
0.0
 31
0.0
  0
ENDBLK
  5
246
330
241
100
AcDbEntity
  8
0
100
AcDbBlockEnd
  0
BLOCK
  5
3FE
330
3FD
100
AcDbEntity
  8
0
100
AcDbBlockBegin
  2
*D1
 70
     1
 10
0.0
 20
0.0
 30
0.0
  3
*D1
  1

  0
LINE
  5
725
330
3FD
100
AcDbEntity
  8
0
 62
     0
370
    -2
100
AcDbLine
 10
-332.4014513609065
 20
41.98142047432942
 30
0.0
 11
-311.5000510273698
 21
28.15722232120815
 31
0.0
  0
INSERT
  5
726
330
3FD
100
AcDbEntity
  8
0
 62
     0
370
    -2
100
AcDbBlockReference
  2
_Open30
 10
-334.486631245239
 20
43.36055964423768
 30
0.0
 41
2.5
 42
2.5
 43
2.5
 50
146.5193269840138
  0
INSERT
  5
727
330
3FD
100
AcDbEntity
  8
0
 62
     0
370
    -2
100
AcDbBlockReference
  2
_Open30
 10
-309.4148711430373
 20
26.7780831512999
 30
0.0
 41
2.5
 42
2.5
 43
2.5
 50
326.5193269840139
  0
MTEXT
  5
728
330
3FD
100
AcDbEntity
  8
0
 62
     4
100
AcDbMText
 10
-313.9040320240439
 20
32.29495855253126
 30
0.0
 40
3.0
 41
0.0
 71
     5
 72
     1
  1
\U+220530
 11
0.8340719537329832
 21
-0.5516556679633088
 31
0.0
 73
     1
 44
1.0
1001
ACAD
1000
MTEXTBEGIN
1070
    73
1070
     1
1070
    44
1040
1.0
1070
    74
1070
     0
1000
MTEXTEND
  0
POINT
  5
729
330
3FD
100
AcDbEntity
  8
Defpoints
 62
     0
100
AcDbPoint
 10
-309.4148711430373
 20
26.7780831512999
 30
0.0
  0
POINT
  5
72A
330
3FD
100
AcDbEntity
  8
Defpoints
 62
     0
100
AcDbPoint
 10
-334.486631245239
 20
43.36055964423768
 30
0.0
  0
ENDBLK
  5
3FF
330
3FD
100
AcDbEntity
  8
0
100
AcDbBlockEnd
  0
BLOCK
  5
408
330
407
100
AcDbEntity
  8
0
100
AcDbBlockBegin
  2
*D2
 70
     1
 10
0.0
 20
0.0
 30
0.0
  3
*D2
  1

  0
LINE
  5
71C
330
407
100
AcDbEntity
  8
0
 62
     0
370
    -2
100
AcDbLine
 10
-317.7007516941383
 20
-11.36055160223119
 30
0.0
 11
-293.1582506941382
 21
-11.36055160223119
 31
0.0
  0
LINE
  5
71D
330
407
100
AcDbEntity
  8
0
 62
     0
370
    -2
100
AcDbLine
 10
-316.2007516941382
 20
1.639448397768806
 30
0.0
 11
-293.1582506941382
 21
1.6394483977688
 31
0.0
  0
LINE
  5
71E
330
407
100
AcDbEntity
  8
0
 62
     0
370
    -2
100
AcDbLine
 10
-294.4082506941382
 20
-8.860551602231197
 30
0.0
 11
-294.4082506941382
 21
-0.8605516022311993
 31
0.0
  0
INSERT
  5
71F
330
407
100
AcDbEntity
  8
0
 62
     0
370
    -2
100
AcDbBlockReference
  2
_Open30
 10
-294.4082506941382
 20
-11.36055160223119
 30
0.0
 41
2.5
 42
2.5
 43
2.5
 50
270.0
  0
INSERT
  5
720
330
407
100
AcDbEntity
  8
0
 62
     0
370
    -2
100
AcDbBlockReference
  2
_Open30
 10
-294.4082506941382
 20
1.6394483977688
 30
0.0
 41
2.5
 42
2.5
 43
2.5
 50
90.0
  0
MTEXT
  5
721
330
407
100
AcDbEntity
  8
0
 62
     4
100
AcDbMText
 10
-296.5332506941382
 20
-4.860551602231246
 30
0.0
 40
3.0
 41
0.0
 71
     5
 72
     1
  1
13
 11
0.0000000000000001
 21
1.0
 31
0.0
 73
     1
 44
1.0
1001
ACAD
1000
MTEXTBEGIN
1070
    73
1070
     1
1070
    44
1040
1.0
1070
    74
1070
     0
1000
MTEXTEND
  0
POINT
  5
722
330
407
100
AcDbEntity
  8
Defpoints
 62
     0
100
AcDbPoint
 10
-317.9507516941383
 20
-11.36055160223119
 30
0.0
  0
POINT
  5
723
330
407
100
AcDbEntity
  8
Defpoints
 62
     0
100
AcDbPoint
 10
-316.4507516941382
 20
1.639448397768806
 30
0.0
  0
POINT
  5
724
330
407
100
AcDbEntity
  8
Defpoints
 62
     0
100
AcDbPoint
 10
-294.4082506941382
 20
1.6394483977688
 30
0.0
  0
ENDBLK
  5
409
330
407
100
AcDbEntity
  8
0
100
AcDbBlockEnd
  0
BLOCK
  5
415
330
414
100
AcDbEntity
  8
0
100
AcDbBlockBegin
  2
*D3
 70
     1
 10
0.0
 20
0.0
 30
0.0
  3
*D3
  1

  0
LINE
  5
713
330
414
100
AcDbEntity
  8
0
 62
     0
370
    -2
100
AcDbLine
 10
-318.6007516941383
 20
-11.36055160223119
 30
0.0
 11
-285.0336966941383
 21
-11.3605516022312
 31
0.0
  0
LINE
  5
714
330
414
100
AcDbEntity
  8
0
 62
     0
370
    -2
100
AcDbLine
 10
-321.7007516941383
 20
59.06932139776881
 30
0.0
 11
-285.0336966941383
 21
59.06932139776881
 31
0.0
  0
LINE
  5
715
330
414
100
AcDbEntity
  8
0
 62
     0
370
    -2
100
AcDbLine
 10
-286.2836966941383
 20
-8.860551602231199
 30
0.0
 11
-286.2836966941383
 21
56.56932139776881
 31
0.0
  0
INSERT
  5
716
330
414
100
AcDbEntity
  8
0
 62
     0
370
    -2
100
AcDbBlockReference
  2
_Open30
 10
-286.2836966941383
 20
-11.3605516022312
 30
0.0
 41
2.5
 42
2.5
 43
2.5
 50
270.0
  0
INSERT
  5
717
330
414
100
AcDbEntity
  8
0
 62
     0
370
    -2
100
AcDbBlockReference
  2
_Open30
 10
-286.2836966941383
 20
59.06932139776881
 30
0.0
 41
2.5
 42
2.5
 43
2.5
 50
90.0
  0
MTEXT
  5
718
330
414
100
AcDbEntity
  8
0
 62
     4
100
AcDbMText
 10
-288.4086966941383
 20
23.85438489776876
 30
0.0
 40
3.0
 41
0.0
 71
     5
 72
     1
  1
70
 11
0.0000000000000001
 21
1.0
 31
0.0
 73
     1
 44
1.0
1001
ACAD
1000
MTEXTBEGIN
1070
    73
1070
     1
1070
    44
1040
1.0
1070
    74
1070
     0
1000
MTEXTEND
  0
POINT
  5
719
330
414
100
AcDbEntity
  8
Defpoints
 62
     0
100
AcDbPoint
 10
-318.8507516941383
 20
-11.36055160223119
 30
0.0
  0
POINT
  5
71A
330
414
100
AcDbEntity
  8
Defpoints
 62
     0
100
AcDbPoint
 10
-321.9507516941383
 20
59.06932139776881
 30
0.0
  0
POINT
  5
71B
330
414
100
AcDbEntity
  8
Defpoints
 62
     0
100
AcDbPoint
 10
-286.2836966941383
 20
59.06932139776881
 30
0.0
  0
ENDBLK
  5
416
330
414
100
AcDbEntity
  8
0
100
AcDbBlockEnd
  0
BLOCK
  5
422
330
421
100
AcDbEntity
  8
0
100
AcDbBlockBegin
  2
*D4
 70
     1
 10
0.0
 20
0.0
 30
0.0
  3
*D4
  1

  0
LINE
  5
734
330
421
100
AcDbEntity
  8
0
 62
     0
370
    -2
100
AcDbLine
 10
-417.0519346941381
 20
-39.70925760223119
 30
0.0
 11
-405.6167776941381
 21
-39.70925760223119
 31
0.0
  0
LINE
  5
735
330
421
100
AcDbEntity
  8
0
 62
     0
370
    -2
100
AcDbLine
 10
-417.0519346941381
 20
-34.5092576022312
 30
0.0
 11
-405.6167776941381
 21
-34.5092576022312
 31
0.0
  0
LINE
  5
736
330
421
100
AcDbEntity
  8
0
 62
     0
370
    -2
100
AcDbLine
 10
-406.8667776941381
 20
-42.20925760223119
 30
0.0
 11
-406.8667776941381
 21
-44.70925760223119
 31
0.0
  0
LINE
  5
737
330
421
100
AcDbEntity
  8
0
 62
     0
370
    -2
100
AcDbLine
 10
-406.8667776941381
 20
-32.0092576022312
 30
0.0
 11
-406.8667776941381
 21
-26.2592576022312
 31
0.0
  0
LINE
  5
738
330
421
100
AcDbEntity
  8
0
 62
     0
370
    -2
100
AcDbLine
 10
-406.8667776941381
 20
-39.70925760223119
 30
0.0
 11
-406.8667776941381
 21
-34.5092576022312
 31
0.0
  0
INSERT
  5
739
330
421
100
AcDbEntity
  8
0
 62
     0
370
    -2
100
AcDbBlockReference
  2
_Open30
 10
-406.8667776941381
 20
-39.70925760223119
 30
0.0
 41
2.5
 42
2.5
 43
2.5
 50
90.0
  0
INSERT
  5
73A
330
421
100
AcDbEntity
  8
0
 62
     0
370
    -2
100
AcDbBlockReference
  2
_Open30
 10
-406.8667776941381
 20
-34.5092576022312
 30
0.0
 41
2.5
 42
2.5
 43
2.5
 50
270.0
  0
MTEXT
  5
73B
330
421
100
AcDbEntity
  8
0
 62
     4
100
AcDbMText
 10
-408.9917776941382
 20
-27.88425760223126
 30
0.0
 40
3.0
 41
0.0
 71
     5
 72
     1
  1
5
 11
0.0000000000000001
 21
1.0
 31
0.0
 73
     1
 44
1.0
1001
ACAD
1000
MTEXTBEGIN
1070
    73
1070
     1
1070
    44
1040
1.0
1070
    74
1070
     0
1000
MTEXTEND
  0
POINT
  5
73C
330
421
100
AcDbEntity
  8
Defpoints
 62
     0
100
AcDbPoint
 10
-417.3019346941382
 20
-39.70925760223119
 30
0.0
  0
POINT
  5
73D
330
421
100
AcDbEntity
  8
Defpoints
 62
     0
100
AcDbPoint
 10
-417.3019346941382
 20
-34.5092576022312
 30
0.0
  0
POINT
  5
73E
330
421
100
AcDbEntity
  8
Defpoints
 62
     0
100
AcDbPoint
 10
-406.8667776941381
 20
-34.5092576022312
 30
0.0
  0
ENDBLK
  5
423
330
421
100
AcDbEntity
  8
0
100
AcDbBlockEnd
  0
BLOCK
  5
42F
330
42E
100
AcDbEntity
  8
0
100
AcDbBlockBegin
  2
*D5
 70
     1
 10
0.0
 20
0.0
 30
0.0
  3
*D5
  1

  0
LINE
  5
72B
330
42E
100
AcDbEntity
  8
0
 62
     0
370
    -2
100
AcDbLine
 10
-364.8009696941382
 20
-43.14356060223119
 30
0.0
 11
-372.4181776941384
 21
-43.14356060223118
 31
0.0
  0
LINE
  5
72C
330
42E
100
AcDbEntity
  8
0
 62
     0
370
    -2
100
AcDbLine
 10
-364.8009696941382
 20
-31.1435606022312
 30
0.0
 11
-372.4181776941384
 21
-31.1435606022312
 31
0.0
  0
LINE
  5
72D
330
42E
100
AcDbEntity
  8
0
 62
     0
370
    -2
100
AcDbLine
 10
-371.1681776941384
 20
-40.64356060223118
 30
0.0
 11
-371.1681776941384
 21
-33.64356060223119
 31
0.0
  0
INSERT
  5
72E
330
42E
100
AcDbEntity
  8
0
 62
     0
370
    -2
100
AcDbBlockReference
  2
_Open30
 10
-371.1681776941384
 20
-43.14356060223118
 30
0.0
 41
2.5
 42
2.5
 43
2.5
 50
270.0
  0
INSERT
  5
72F
330
42E
100
AcDbEntity
  8
0
 62
     0
370
    -2
100
AcDbBlockReference
  2
_Open30
 10
-371.1681776941384
 20
-31.1435606022312
 30
0.0
 41
2.5
 42
2.5
 43
2.5
 50
90.0
  0
MTEXT
  5
730
330
42E
100
AcDbEntity
  8
0
 62
     4
100
AcDbMText
 10
-373.2931776941384
 20
-37.14356060223126
 30
0.0
 40
3.0
 41
0.0
 71
     5
 72
     1
  1
12
 11
0.0000000000000001
 21
1.0
 31
0.0
 73
     1
 44
1.0
1001
ACAD
1000
MTEXTBEGIN
1070
    73
1070
     1
1070
    44
1040
1.0
1070
    74
1070
     0
1000
MTEXTEND
  0
POINT
  5
731
330
42E
100
AcDbEntity
  8
Defpoints
 62
     0
100
AcDbPoint
 10
-364.5509696941382
 20
-43.14356060223119
 30
0.0
  0
POINT
  5
732
330
42E
100
AcDbEntity
  8
Defpoints
 62
     0
100
AcDbPoint
 10
-364.5509696941382
 20
-31.1435606022312
 30
0.0
  0
POINT
  5
733
330
42E
100
AcDbEntity
  8
Defpoints
 62
     0
100
AcDbPoint
 10
-371.1681776941384
 20
-31.1435606022312
 30
0.0
  0
ENDBLK
  5
430
330
42E
100
AcDbEntity
  8
0
100
AcDbBlockEnd
  0
BLOCK
  5
43C
330
43B
100
AcDbEntity
  8
0
100
AcDbBlockBegin
  2
*D6
 70
     1
 10
0.0
 20
0.0
 30
0.0
  3
*D6
  1

  0
LINE
  5
70A
330
43B
100
AcDbEntity
  8
0
 62
     0
370
    -2
100
AcDbLine
 10
-421.7692366941383
 20
-44.60925760223118
 30
0.0
 11
-437.4742196941381
 21
-44.60925760223118
 31
0.0
  0
LINE
  5
70B
330
43B
100
AcDbEntity
  8
0
 62
     0
370
    -2
100
AcDbLine
 10
-421.7692366941383
 20
-29.60925760223119
 30
0.0
 11
-437.4742196941381
 21
-29.60925760223119
 31
0.0
  0
LINE
  5
70C
330
43B
100
AcDbEntity
  8
0
 62
     0
370
    -2
100
AcDbLine
 10
-436.2242196941381
 20
-42.10925760223118
 30
0.0
 11
-436.2242196941381
 21
-32.10925760223118
 31
0.0
  0
INSERT
  5
70D
330
43B
100
AcDbEntity
  8
0
 62
     0
370
    -2
100
AcDbBlockReference
  2
_Open30
 10
-436.2242196941381
 20
-44.60925760223118
 30
0.0
 41
2.5
 42
2.5
 43
2.5
 50
270.0
  0
INSERT
  5
70E
330
43B
100
AcDbEntity
  8
0
 62
     0
370
    -2
100
AcDbBlockReference
  2
_Open30
 10
-436.2242196941381
 20
-29.60925760223119
 30
0.0
 41
2.5
 42
2.5
 43
2.5
 50
90.0
  0
MTEXT
  5
70F
330
43B
100
AcDbEntity
  8
0
 62
     4
100
AcDbMText
 10
-438.3492196941381
 20
-37.10925760223125
 30
0.0
 40
3.0
 41
0.0
 71
     5
 72
     1
  1
%%C15
 11
0.0000000000000001
 21
1.0
 31
0.0
 73
     1
 44
1.0
1001
ACAD
1000
MTEXTBEGIN
1070
    73
1070
     1
1070
    44
1040
1.0
1070
    74
1070
     0
1000
MTEXTEND
  0
POINT
  5
710
330
43B
100
AcDbEntity
  8
Defpoints
 62
     0
100
AcDbPoint
 10
-421.5192366941383
 20
-44.60925760223118
 30
0.0
  0
POINT
  5
711
330
43B
100
AcDbEntity
  8
Defpoints
 62
     0
100
AcDbPoint
 10
-421.5192366941383
 20
-29.60925760223119
 30
0.0
  0
POINT
  5
712
330
43B
100
AcDbEntity
  8
Defpoints
 62
     0
100
AcDbPoint
 10
-436.2242196941381
 20
-29.60925760223119
 30
0.0
  0
ENDBLK
  5
43D
330
43B
100
AcDbEntity
  8
0
100
AcDbBlockEnd
  0
BLOCK
  5
449
330
448
100
AcDbEntity
  8
0
100
AcDbBlockBegin
  2
*D7
 70
     1
 10
0.0
 20
0.0
 30
0.0
  3
*D7
  1

  0
LINE
  5
701
330
448
100
AcDbEntity
  8
0
 62
     0
370
    -2
100
AcDbLine
 10
-351.9688626941382
 20
28.54724439776881
 30
0.0
 11
-351.9688626941382
 21
69.16911339776881
 31
0.0
  0
LINE
  5
702
330
448
100
AcDbEntity
  8
0
 62
     0
370
    -2
100
AcDbLine
 10
-297.9507516941382
 20
35.31932139776881
 30
0.0
 11
-297.9507516941382
 21
69.16911339776881
 31
0.0
  0
LINE
  5
703
330
448
100
AcDbEntity
  8
0
 62
     0
370
    -2
100
AcDbLine
 10
-349.4688626941382
 20
67.91911339776881
 30
0.0
 11
-300.4507516941382
 21
67.91911339776881
 31
0.0
  0
INSERT
  5
704
330
448
100
AcDbEntity
  8
0
 62
     0
370
    -2
100
AcDbBlockReference
  2
_Open30
 10
-351.9688626941382
 20
67.91911339776881
 30
0.0
 41
2.5
 42
2.5
 43
2.5
 50
180.0
  0
INSERT
  5
705
330
448
100
AcDbEntity
  8
0
 62
     0
370
    -2
100
AcDbBlockReference
  2
_Open30
 10
-297.9507516941382
 20
67.91911339776881
 30
0.0
 41
2.5
 42
2.5
 43
2.5
  0
MTEXT
  5
706
330
448
100
AcDbEntity
  8
0
 62
     4
100
AcDbMText
 10
-324.9598071941382
 20
70.04411339776881
 30
0.0
 40
3.0
 41
0.0
 71
     5
 72
     1
  1
54
 73
     1
 44
1.0
1001
ACAD
1000
MTEXTBEGIN
1070
    73
1070
     1
1070
    44
1040
1.0
1070
    74
1070
     0
1000
MTEXTEND
  0
POINT
  5
707
330
448
100
AcDbEntity
  8
Defpoints
 62
     0
100
AcDbPoint
 10
-351.9688626941382
 20
28.29724439776881
 30
0.0
  0
POINT
  5
708
330
448
100
AcDbEntity
  8
Defpoints
 62
     0
100
AcDbPoint
 10
-297.9507516941382
 20
35.06932139776881
 30
0.0
  0
POINT
  5
709
330
448
100
AcDbEntity
  8
Defpoints
 62
     0
100
AcDbPoint
 10
-297.9507516941382
 20
67.91911339776881
 30
0.0
  0
ENDBLK
  5
44A
330
448
100
AcDbEntity
  8
0
100
AcDbBlockEnd
  0
BLOCK
  5
456
330
455
100
AcDbEntity
  8
0
100
AcDbBlockBegin
  2
*D8
 70
     1
 10
0.0
 20
0.0
 30
0.0
  3
*D8
  1

  0
LINE
  5
6F8
330
455
100
AcDbEntity
  8
0
 62
     0
370
    -2
100
AcDbLine
 10
-426.5192366941382
 20
52.34905539776879
 30
0.0
 11
-426.5192366941382
 21
69.16911339776881
 31
0.0
  0
LINE
  5
6F9
330
455
100
AcDbEntity
  8
0
 62
     0
370
    -2
100
AcDbLine
 10
-416.5192366941381
 20
52.34905539776879
 30
0.0
 11
-416.5192366941381
 21
69.16911339776881
 31
0.0
  0
LINE
  5
6FA
330
455
100
AcDbEntity
  8
0
 62
     0
370
    -2
100
AcDbLine
 10
-424.0192366941381
 20
67.91911339776881
 30
0.0
 11
-419.0192366941381
 21
67.91911339776881
 31
0.0
  0
INSERT
  5
6FB
330
455
100
AcDbEntity
  8
0
 62
     0
370
    -2
100
AcDbBlockReference
  2
_Open30
 10
-426.5192366941382
 20
67.91911339776881
 30
0.0
 41
2.5
 42
2.5
 43
2.5
 50
180.0
  0
INSERT
  5
6FC
330
455
100
AcDbEntity
  8
0
 62
     0
370
    -2
100
AcDbBlockReference
  2
_Open30
 10
-416.5192366941381
 20
67.91911339776881
 30
0.0
 41
2.5
 42
2.5
 43
2.5
  0
MTEXT
  5
6FD
330
455
100
AcDbEntity
  8
0
 62
     4
100
AcDbMText
 10
-421.5192366941381
 20
70.04411339776881
 30
0.0
 40
3.0
 41
0.0
 71
     5
 72
     1
  1
10
 73
     1
 44
1.0
1001
ACAD
1000
MTEXTBEGIN
1070
    73
1070
     1
1070
    44
1040
1.0
1070
    74
1070
     0
1000
MTEXTEND
  0
POINT
  5
6FE
330
455
100
AcDbEntity
  8
Defpoints
 62
     0
100
AcDbPoint
 10
-426.5192366941382
 20
52.0990553977688
 30
0.0
  0
POINT
  5
6FF
330
455
100
AcDbEntity
  8
Defpoints
 62
     0
100
AcDbPoint
 10
-416.5192366941381
 20
52.0990553977688
 30
0.0
  0
POINT
  5
700
330
455
100
AcDbEntity
  8
Defpoints
 62
     0
100
AcDbPoint
 10
-416.5192366941381
 20
67.91911339776881
 30
0.0
  0
ENDBLK
  5
457
330
455
100
AcDbEntity
  8
0
100
AcDbBlockEnd
  0
ENDSEC
  0
SECTION
  2
ENTITIES
  0
LINE
  5
338
330
6B
100
AcDbEntity
  8
0
 62
     3
100
AcDbLine
 10
-419.8944286941381
 20
-34.00925760223119
 30
0.0
 11
-421.5192366941383
 21
-34.00925760223119
 31
0.0
  0
LINE
  5
339
330
6B
100
AcDbEntity
  8
0
 62
     3
100
AcDbLine
 10
-419.8944286941381
 20
-40.20925760223119
 30
0.0
 11
-421.5192366941383
 21
-40.20925760223119
 31
0.0
  0
LINE
  5
33A
330
6B
100
AcDbEntity
  8
0
 62
     3
100
AcDbLine
 10
-417.3019346941382
 20
-34.5092576022312
 30
0.0
 11
-419.1761616941382
 21
-34.5092576022312
 31
0.0
  0
LINE
  5
33B
330
6B
100
AcDbEntity
  8
0
 62
     3
100
AcDbLine
 10
-417.3019346941382
 20
-39.70925760223119
 30
0.0
 11
-419.1761616941382
 21
-39.70925760223119
 31
0.0
  0
ARC
  5
33C
330
6B
100
AcDbEntity
  8
0
 62
     3
100
AcDbCircle
 10
-421.5192366941383
 20
-37.1092576022312
 30
0.0
 40
3.5
100
AcDbArc
 50
47.975372000001
 51
62.33955000000009
  0
ARC
  5
33D
330
6B
100
AcDbEntity
  8
0
 62
     3
100
AcDbCircle
 10
-421.5192366941383
 20
-37.1092576022312
 30
0.0
 40
3.5
100
AcDbArc
 50
297.6604499999999
 51
312.024627999999
  0
LINE
  5
33E
330
6B
100
AcDbEntity
  8
0
  6
CENTER
100
AcDbLine
 10
-421.5192366941383
 20
-28.42984160223119
 30
0.0
 11
-421.5192366941383
 21
-45.62989560223118
 31
0.0
  0
LINE
  5
33F
330
6B
100
AcDbEntity
  8
0
 62
     3
100
AcDbLine
 10
-415.0240746941381
 20
-34.2229836022312
 30
0.0
 11
-417.3019346941382
 21
-34.5092576022312
 31
0.0
  0
LINE
  5
340
330
6B
100
AcDbEntity
  8
0
 62
     3
100
AcDbLine
 10
-415.0240746941381
 20
-39.99553060223119
 30
0.0
 11
-417.3019346941382
 21
-39.70925760223119
 31
0.0
  0
ARC
  5
341
330
6B
100
AcDbEntity
  8
0
 62
     3
100
AcDbCircle
 10
-421.5192366941383
 20
-37.1092576022312
 30
0.0
 40
3.1
100
AcDbArc
 50
90.0
 51
270.0
  0
LINE
  5
342
330
6B
100
AcDbEntity
  8
0
100
AcDbLine
 10
-303.4016746434826
 20
-36.13321209323738
 30
0.0
 11
-211.0700786891527
 21
-36.13321209323738
 31
0.0
  0
LINE
  5
343
330
6B
100
AcDbEntity
  8
0
 62
     3
100
AcDbLine
 10
-317.4463736941382
 20
5.239201397768806
 30
0.0
 11
-317.4463736941382
 21
3.139530397768806
 31
0.0
  0
LINE
  5
344
330
6B
100
AcDbEntity
  8
0
 62
     3
100
AcDbLine
 10
-327.4507516941383
 20
1.639448397768806
 30
0.0
 11
-316.4507516941382
 21
1.639448397768806
 31
0.0
  0
ARC
  5
345
330
6B
100
AcDbEntity
  8
0
 62
     3
100
AcDbCircle
 10
-316.4507516941382
 20
-0.3605516022311924
 30
0.0
 40
2.0
100
AcDbArc
 50
0.0
 51
90.0
  0
ARC
  5
346
330
6B
100
AcDbEntity
  8
0
 62
     3
100
AcDbCircle
 10
-327.4507516941383
 20
-0.3605516022311924
 30
0.0
 40
2.0
100
AcDbArc
 50
90.0
 51
180.0
  0
LINE
  5
347
330
6B
100
AcDbEntity
  8
0
 62
     3
100
AcDbLine
 10
-327.7525676941382
 20
1.601161397768806
 30
0.0
 11
-327.2203096941382
 21
3.101161397768806
 31
0.0
  0
LINE
  5
348
330
6B
100
AcDbEntity
  8
0
 62
     3
100
AcDbLine
 10
-316.6947786941382
 20
3.139448397768807
 30
0.0
 11
-327.2067236941382
 21
3.139448397768807
 31
0.0
  0
LINE
  5
349
330
6B
100
AcDbEntity
  8
0
  6
CENTER
100
AcDbLine
 10
-296.1950706941382
 20
35.06932139776881
 30
0.0
 11
-347.7560616941382
 21
35.06932139776881
 31
0.0
  0
LINE
  5
34A
330
6B
100
AcDbEntity
  8
0
 62
     3
100
AcDbLine
 10
-314.4507516941382
 20
-9.360551602231193
 30
0.0
 11
-314.4507516941382
 21
-0.3605516022311924
 31
0.0
  0
LINE
  5
34B
330
6B
100
AcDbEntity
  8
0
 62
     3
100
AcDbLine
 10
-329.4507516941383
 20
-9.360551602231193
 30
0.0
 11
-329.4507516941383
 21
-0.3605516022311924
 31
0.0
  0
LINE
  5
34C
330
6B
100
AcDbEntity
  8
0
 62
     3
100
AcDbLine
 10
-316.7507516941383
 20
-2.160551602231191
 30
0.0
 11
-327.1507516941383
 21
-2.160551602231191
 31
0.0
  0
LINE
  5
34D
330
6B
100
AcDbEntity
  8
0
 62
     3
100
AcDbLine
 10
-316.7507516941383
 20
-6.360551602231192
 30
0.0
 11
-316.7507516941383
 21
-2.160551602231191
 31
0.0
  0
ARC
  5
34E
330
6B
100
AcDbEntity
  8
0
 62
     3
100
AcDbCircle
 10
-316.4507516941382
 20
-9.360551602231193
 30
0.0
 40
2.0
100
AcDbArc
 50
270.0
 51
0.0
  0
LINE
  5
34F
330
6B
100
AcDbEntity
  8
0
 62
     3
100
AcDbLine
 10
-316.4507516941382
 20
-11.36055160223119
 30
0.0
 11
-319.4507516941383
 21
-11.36055160223119
 31
0.0
  0
LINE
  5
350
330
6B
100
AcDbEntity
  8
0
 62
     3
100
AcDbLine
 10
-327.4507516941383
 20
-11.36055160223119
 30
0.0
 11
-324.4507516941383
 21
-11.36055160223119
 31
0.0
  0
ARC
  5
351
330
6B
100
AcDbEntity
  8
0
 62
     3
100
AcDbCircle
 10
-327.4507516941383
 20
-9.360551602231193
 30
0.0
 40
2.0
100
AcDbArc
 50
180.0
 51
270.0
  0
LINE
  5
352
330
6B
100
AcDbEntity
  8
0
 62
     3
100
AcDbLine
 10
-327.1507516941383
 20
-6.360551602231192
 30
0.0
 11
-327.1507516941383
 21
-2.160551602231191
 31
0.0
  0
LINE
  5
353
330
6B
100
AcDbEntity
  8
0
 62
     3
100
AcDbLine
 10
-318.8507516941383
 20
-11.36055160223119
 30
0.0
 11
-318.8507516941383
 21
-6.360551602231192
 31
0.0
  0
LINE
  5
354
330
6B
100
AcDbEntity
  8
0
 62
     3
100
AcDbLine
 10
-325.0507516941382
 20
-11.36055160223119
 30
0.0
 11
-325.0507516941382
 21
-6.360551602231192
 31
0.0
  0
LINE
  5
355
330
6B
100
AcDbEntity
  8
0
 62
     3
100
AcDbLine
 10
-319.4507516941383
 20
-11.36055160223119
 30
0.0
 11
-324.4507516941383
 21
-11.36055160223119
 31
0.0
  0
LINE
  5
356
330
6B
100
AcDbEntity
  8
0
 62
     3
100
AcDbLine
 10
-316.1489346941382
 20
1.601161397768806
 30
0.0
 11
-316.6811936941382
 21
3.101161397768806
 31
0.0
  0
LINE
  5
357
330
6B
100
AcDbEntity
  8
0
 62
     3
100
AcDbLine
 10
-344.5498856941382
 20
23.22346539776881
 30
0.0
 11
-337.1597686941381
 21
29.13054039776881
 31
0.0
  0
LINE
  5
358
330
6B
100
AcDbEntity
  8
0
 62
     3
100
AcDbLine
 10
-316.7507516941383
 20
-6.360551602231192
 30
0.0
 11
-327.1507516941383
 21
-6.360551602231192
 31
0.0
  0
ARC
  5
359
330
6B
100
AcDbEntity
  8
0
 62
     3
100
AcDbCircle
 10
-315.4463736941382
 20
5.239201397768806
 30
0.0
 40
2.0
100
AcDbArc
 50
135.2380910000006
 51
180.0
  0
LINE
  5
35A
330
6B
100
AcDbEntity
  8
0
 62
     3
100
AcDbLine
 10
-337.9767936941382
 20
29.18189639776881
 30
0.0
 11
-336.9546406941382
 21
29.47499339776881
 31
0.0
  0
ARC
  5
35B
330
6B
100
AcDbEntity
  8
0
 62
     3
100
AcDbCircle
 10
-338.2524306941383
 20
30.14315839776881
 30
0.0
 40
1.0
100
AcDbArc
 50
196.8141599999997
 51
286.0000000000013
  0
LINE
  5
35C
330
6B
100
AcDbEntity
  8
0
 62
     3
100
AcDbLine
 10
-344.2555896941382
 20
31.87117639776881
 30
0.0
 11
-344.7537156941383
 21
31.82759639776881
 31
0.0
  0
ARC
  5
35D
330
6B
100
AcDbEntity
  8
0
 62
     3
100
AcDbCircle
 10
-344.8408716941382
 20
32.82379039776881
 30
0.0
 40
1.0
100
AcDbArc
 50
185.6028139999999
 51
274.9999999999998
  0
ARC
  5
35E
330
6B
100
AcDbEntity
  8
0
 62
     3
100
AcDbCircle
 10
-321.9507516941383
 20
35.06932139776881
 30
0.0
 40
18.029734
100
AcDbArc
 50
315.2580919999995
 51
196.8141599999997
  0
ARC
  5
35F
330
6B
100
AcDbEntity
  8
0
 62
     3
100
AcDbCircle
 10
-321.9507516941383
 20
35.06932139776881
 30
0.0
 40
24.0
100
AcDbArc
 50
315.0994489999996
 51
180.602814
  0
LINE
  5
360
330
6B
100
AcDbEntity
  8
0
 62
     3
100
AcDbLine
 10
-345.9422436941383
 20
29.78659839776881
 30
0.0
 11
-348.7493076941382
 21
27.51316939776881
 31
0.0
  0
LINE
  5
361
330
6B
100
AcDbEntity
  8
0
 62
     3
100
AcDbLine
 10
-350.2667716941382
 20
29.00933139776881
 30
0.0
 11
-348.7493076941382
 21
27.51316939776881
 31
0.0
  0
ARC
  5
362
330
6B
100
AcDbEntity
  8
0
 62
     3
100
AcDbCircle
 10
-350.9688626941382
 20
28.29724439776881
 30
0.0
 40
1.0
100
AcDbArc
 50
45.40497799999895
 51
225.4049779999989
  0
LINE
  5
363
330
6B
100
AcDbEntity
  8
0
  6
PHANTOM
100
AcDbLine
 10
-334.7745856941382
 20
8.875351397768806
 30
0.0
 11
-351.2531636941383
 21
31.14487039776881
 31
0.0
  0
LINE
  5
364
330
6B
100
AcDbEntity
  8
0
  6
PHANTOM
100
AcDbLine
 10
-338.7538306941382
 20
19.2965103977688
 30
0.0
 11
-339.5334396941382
 21
17.82833239776881
 31
0.0
  0
LINE
  5
365
330
6B
100
AcDbEntity
  8
0
  6
PHANTOM
100
AcDbLine
 10
-348.8415926941382
 20
32.92933839776881
 30
0.0
 11
-338.7538306941382
 21
19.2965103977688
 31
0.0
  0
LINE
  5
366
330
6B
100
AcDbEntity
  8
0
  6
PHANTOM
100
AcDbLine
 10
-351.7348986941382
 20
35.07843839776881
 30
0.0
 11
-348.8415926941382
 21
32.92933839776881
 31
0.0
  0
ARC
  5
367
330
6B
100
AcDbEntity
  8
0
  6
PHANTOM
100
AcDbCircle
 10
-352.3311846941382
 20
34.2756663977688
 30
0.0
 40
1.0
100
AcDbArc
 50
53.3956400000013
 51
143.573965999999
  0
LINE
  5
368
330
6B
100
AcDbEntity
  8
0
  6
PHANTOM
100
AcDbLine
 10
-353.6499136941383
 20
34.17279839776881
 30
0.0
 11
-353.1358086941382
 21
34.86945139776881
 31
0.0
  0
ARC
  5
369
330
6B
100
AcDbEntity
  8
0
  6
PHANTOM
100
AcDbCircle
 10
-352.8452896941383
 20
33.5790133977688
 30
0.0
 40
1.0
100
AcDbArc
 50
143.573965999999
 51
233.2970189999994
  0
LINE
  5
36A
330
6B
100
AcDbEntity
  8
0
  6
PHANTOM
100
AcDbLine
 10
-353.4429566941383
 20
32.77726939776881
 30
0.0
 11
-351.2531636941383
 21
31.14487039776881
 31
0.0
  0
LINE
  5
36B
330
6B
100
AcDbEntity
  8
0
 62
     3
100
AcDbLine
 10
-425.0353706941381
 20
31.46468139776881
 30
0.0
 11
-421.5192366941383
 21
31.35116439776881
 31
0.0
  0
LINE
  5
36C
330
6B
100
AcDbEntity
  8
0
 62
     3
100
AcDbLine
 10
-418.0031026941382
 20
31.46468139776881
 30
0.0
 11
-421.5192366941383
 21
31.35116439776881
 31
0.0
  0
ARC
  5
36D
330
6B
100
AcDbEntity
  8
0
 62
     3
100
AcDbCircle
 10
-417.0192366941383
 20
31.99670639776881
 30
0.0
 40
0.5
100
AcDbArc
 50
271.8491369999985
 51
0.0
  0
ARC
  5
36E
330
6B
100
AcDbEntity
  8
0
 62
     3
100
AcDbCircle
 10
-426.0192366941383
 20
31.99670639776881
 30
0.0
 40
0.5
100
AcDbArc
 50
180.0
 51
268.1508630000015
  0
LINE
  5
36F
330
6B
100
AcDbEntity
  8
0
 62
     3
100
AcDbLine
 10
-418.5192366941381
 20
22.59062839776881
 30
0.0
 11
-424.5192366941381
 21
22.59062839776881
 31
0.0
  0
LINE
  5
370
330
6B
100
AcDbEntity
  8
0
 62
     3
100
AcDbLine
 10
-418.5192366941381
 20
28.84174639776881
 30
0.0
 11
-424.5192366941381
 21
28.84174639776881
 31
0.0
  0
LINE
  5
371
330
6B
100
AcDbEntity
  8
0
 62
     3
100
AcDbLine
 10
-424.5192366941381
 20
31.44801839776881
 30
0.0
 11
-424.5192366941381
 21
22.59062839776881
 31
0.0
  0
LINE
  5
372
330
6B
100
AcDbEntity
  8
0
 62
     3
100
AcDbLine
 10
-418.5192366941381
 20
31.44801839776881
 30
0.0
 11
-418.5192366941381
 21
22.59062839776881
 31
0.0
  0
ARC
  5
373
330
6B
100
AcDbEntity
  8
0
 62
     3
100
AcDbCircle
 10
-418.0192366941382
 20
31.96442139776881
 30
0.0
 40
0.5
100
AcDbArc
 50
271.8491369999985
 51
0.0
  0
ARC
  5
374
330
6B
100
AcDbEntity
  8
0
 62
     3
100
AcDbCircle
 10
-425.0192366941381
 20
31.96442139776881
 30
0.0
 40
0.5
100
AcDbArc
 50
180.0
 51
268.1508630000015
  0
LINE
  5
375
330
6B
100
AcDbEntity
  8
0
 62
     3
100
AcDbLine
 10
-417.0031026941382
 20
31.49696639776881
 30
0.0
 11
-418.0031026941382
 21
31.46468139776881
 31
0.0
  0
LINE
  5
376
330
6B
100
AcDbEntity
  8
0
 62
     3
100
AcDbLine
 10
-426.0353706941382
 20
31.49696639776881
 30
0.0
 11
-425.0353706941381
 21
31.46468139776881
 31
0.0
  0
LINE
  5
377
330
6B
100
AcDbEntity
  8
0
  6
CENTER
100
AcDbLine
 10
-413.2048566941382
 20
-37.1092576022312
 30
0.0
 11
-430.1099856941381
 21
-37.1092576022312
 31
0.0
  0
LINE
  5
378
330
6B
100
AcDbEntity
  8
0
 62
     3
100
AcDbLine
 10
-343.3684496941382
 20
-32.14356060223119
 30
0.0
 11
-324.4161676941383
 21
-32.14356060223119
 31
0.0
  0
LINE
  5
379
330
6B
100
AcDbEntity
  8
0
 62
     3
100
AcDbLine
 10
-343.3684496941382
 20
-42.14356060223119
 30
0.0
 11
-324.4161676941383
 21
-42.14356060223119
 31
0.0
  0
LINE
  5
37A
330
6B
100
AcDbEntity
  8
0
 62
     3
100
AcDbLine
 10
-358.0914086941382
 20
-40.14356060223119
 30
0.0
 11
-358.0914086941382
 21
-34.14356060223119
 31
0.0
  0
LINE
  5
37B
330
6B
100
AcDbEntity
  8
0
 62
     3
100
AcDbLine
 10
-348.0914086941382
 20
-40.14356060223119
 30
0.0
 11
-348.0914086941382
 21
-34.14356060223119
 31
0.0
  0
LINE
  5
37C
330
6B
100
AcDbEntity
  8
0
  6
CENTER
100
AcDbLine
 10
-321.9507516941383
 20
-29.74691360223119
 30
0.0
 11
-321.9507516941383
 21
-44.91216460223118
 31
0.0
  0
LINE
  5
37D
330
6B
100
AcDbEntity
  8
0
 62
     3
100
AcDbLine
 10
-357.5914086941383
 20
-40.64356060223119
 30
0.0
 11
-348.5914086941382
 21
-40.64356060223119
 31
0.0
  0
LINE
  5
37E
330
6B
100
AcDbEntity
  8
0
 62
     3
100
AcDbLine
 10
-348.5914086941382
 20
-33.64356060223119
 30
0.0
 11
-357.5914086941383
 21
-33.64356060223119
 31
0.0
  0
LINE
  5
37F
330
6B
100
AcDbEntity
  8
0
 62
     3
100
AcDbLine
 10
-364.5509696941382
 20
-43.14356060223119
 30
0.0
 11
-344.1463266941382
 21
-43.14356060223119
 31
0.0
  0
LINE
  5
380
330
6B
100
AcDbEntity
  8
0
 62
     3
100
AcDbLine
 10
-364.5509696941382
 20
-31.1435606022312
 30
0.0
 11
-344.1463266941382
 21
-31.1435606022312
 31
0.0
  0
LINE
  5
381
330
6B
100
AcDbEntity
  8
0
 62
     3
100
AcDbLine
 10
-365.0509696941382
 20
-42.64356060223119
 30
0.0
 11
-365.0509696941382
 21
-31.64356060223119
 31
0.0
  0
ARC
  5
382
330
6B
100
AcDbEntity
  8
0
 62
     3
100
AcDbCircle
 10
-357.5914086941383
 20
-34.14356060223119
 30
0.0
 40
0.5
100
AcDbArc
 50
90.0
 51
180.0
  0
ARC
  5
383
330
6B
100
AcDbEntity
  8
0
 62
     3
100
AcDbCircle
 10
-348.5914086941382
 20
-34.14356060223119
 30
0.0
 40
0.5
100
AcDbArc
 50
0.0
 51
90.0
  0
ARC
  5
384
330
6B
100
AcDbEntity
  8
0
 62
     3
100
AcDbCircle
 10
-348.5914086941382
 20
-40.14356060223119
 30
0.0
 40
0.5
100
AcDbArc
 50
270.0
 51
0.0
  0
ARC
  5
385
330
6B
100
AcDbEntity
  8
0
 62
     3
100
AcDbCircle
 10
-357.5914086941383
 20
-40.14356060223119
 30
0.0
 40
0.5
100
AcDbArc
 50
180.0
 51
270.0
  0
LINE
  5
386
330
6B
100
AcDbEntity
  8
0
 62
     3
100
AcDbLine
 10
-343.8901446941382
 20
-31.2874486022312
 30
0.0
 11
-343.3730296941383
 21
-32.13604360223119
 31
0.0
  0
LINE
  5
387
330
6B
100
AcDbEntity
  8
0
 62
     3
100
AcDbLine
 10
-343.8901446941382
 20
-42.99967160223118
 30
0.0
 11
-343.3730296941383
 21
-42.15107660223118
 31
0.0
  0
ARC
  5
388
330
6B
100
AcDbEntity
  8
0
 62
     3
100
AcDbCircle
 10
-344.1463266941382
 20
-31.44356060223119
 30
0.0
 40
0.3
100
AcDbArc
 50
31.35717300000051
 51
90.0
  0
LINE
  5
389
330
6B
100
AcDbEntity
  8
0
  6
HIDDEN
 62
    15
100
AcDbLine
 10
-343.8901446941382
 20
-31.2874486022312
 30
0.0
 11
-343.9778266941382
 21
-31.1435606022312
 31
0.0
  0
ARC
  5
38A
330
6B
100
AcDbEntity
  8
0
 62
     3
100
AcDbCircle
 10
-344.1463266941382
 20
-42.84356060223118
 30
0.0
 40
0.3
100
AcDbArc
 50
270.0
 51
328.6428269999995
  0
LINE
  5
38B
330
6B
100
AcDbEntity
  8
0
  6
HIDDEN
 62
    15
100
AcDbLine
 10
-343.8901446941382
 20
-42.99967160223118
 30
0.0
 11
-343.9778266941382
 21
-43.14356060223119
 31
0.0
  0
LINE
  5
38C
330
6B
100
AcDbEntity
  8
0
 62
     3
100
AcDbLine
 10
-326.7800216941383
 20
-33.6274266022312
 30
0.0
 11
-326.8935386941383
 21
-37.14356060223119
 31
0.0
  0
LINE
  5
38D
330
6B
100
AcDbEntity
  8
0
 62
     3
100
AcDbLine
 10
-326.7800216941383
 20
-40.65969460223119
 30
0.0
 11
-326.8935386941383
 21
-37.14356060223119
 31
0.0
  0
ARC
  5
38E
330
6B
100
AcDbEntity
  8
0
 62
     3
100
AcDbCircle
 10
-324.4161676941383
 20
-41.64356060223119
 30
0.0
 40
0.5
100
AcDbArc
 50
270.0
 51
353.1995740000001
  0
ARC
  5
38F
330
6B
100
AcDbEntity
  8
0
 62
     3
100
AcDbCircle
 10
-326.2479976941382
 20
-41.64356060223119
 30
0.0
 40
0.5
100
AcDbArc
 50
181.849137
 51
270.0
  0
ARC
  5
390
330
6B
100
AcDbEntity
  8
0
 62
     3
100
AcDbCircle
 10
-326.2479976941382
 20
-32.64356060223119
 30
0.0
 40
0.5
100
AcDbArc
 50
90.0
 51
178.150863
  0
ARC
  5
391
330
6B
100
AcDbEntity
  8
0
 62
     3
100
AcDbCircle
 10
-324.4161676941383
 20
-32.64356060223119
 30
0.0
 40
0.5
100
AcDbArc
 50
6.800425999999959
 51
90.0
  0
LINE
  5
392
330
6B
100
AcDbEntity
  8
0
 62
     3
100
AcDbLine
 10
-326.7477366941383
 20
-41.65969460223119
 30
0.0
 11
-326.7800216941383
 21
-40.65969460223119
 31
0.0
  0
LINE
  5
393
330
6B
100
AcDbEntity
  8
0
 62
     3
100
AcDbLine
 10
-326.7477366941383
 20
-32.6274266022312
 30
0.0
 11
-326.7800216941383
 21
-33.6274266022312
 31
0.0
  0
LINE
  5
394
330
6B
100
AcDbEntity
  8
0
 62
     3
100
AcDbLine
 10
-323.6682906941382
 20
-35.19154960223119
 30
0.0
 11
-323.9196856941382
 21
-32.5843546022312
 31
0.0
  0
ARC
  5
395
330
6B
100
AcDbEntity
  8
0
 62
     3
100
AcDbCircle
 10
-323.1705986941382
 20
-35.14356060223119
 30
0.0
 40
0.5
100
AcDbArc
 50
185.50763
 51
270.0
  0
ARC
  5
396
330
6B
100
AcDbEntity
  8
0
 62
     3
100
AcDbCircle
 10
-323.1705986941382
 20
-39.14356060223119
 30
0.0
 40
0.5
100
AcDbArc
 50
90.0
 51
174.49237
  0
LINE
  5
397
330
6B
100
AcDbEntity
  8
0
 62
     3
100
AcDbLine
 10
-323.6682906941382
 20
-39.09557160223119
 30
0.0
 11
-323.9196856941382
 21
-41.70276560223118
 31
0.0
  0
ARC
  5
398
330
6B
100
AcDbEntity
  8
0
 62
     3
100
AcDbCircle
 10
-364.5509696941382
 20
-31.64356060223119
 30
0.0
 40
0.5
100
AcDbArc
 50
90.0
 51
180.0
  0
ARC
  5
399
330
6B
100
AcDbEntity
  8
0
 62
     3
100
AcDbCircle
 10
-364.5509696941382
 20
-42.64356060223119
 30
0.0
 40
0.5
100
AcDbArc
 50
180.0
 51
270.0
  0
ARC
  5
39A
330
6B
100
AcDbEntity
  8
0
 62
     3
100
AcDbCircle
 10
-415.0614836941382
 20
-40.29318960223118
 30
0.0
 40
0.3
100
AcDbArc
 50
333.7548490000003
 51
82.8368220000015
  0
ARC
  5
39B
330
6B
100
AcDbEntity
  8
0
 62
     3
100
AcDbCircle
 10
-421.5192366941383
 20
-37.1092576022312
 30
0.0
 40
7.5
100
AcDbArc
 50
90.0
 51
270.0
  0
ARC
  5
39C
330
6B
100
AcDbEntity
  8
0
 62
     3
100
AcDbCircle
 10
-415.0614836941382
 20
-33.92532560223119
 30
0.0
 40
0.3
100
AcDbArc
 50
277.1631779999985
 51
26.2451509999997
  0
ARC
  5
39D
330
6B
100
AcDbEntity
  8
0
 62
     3
100
AcDbCircle
 10
-421.5192366941383
 20
-37.1092576022312
 30
0.0
 40
7.5
100
AcDbArc
 50
270.0
 51
90.0
  0
LINE
  5
39E
330
6B
100
AcDbEntity
  8
0
  6
PHANTOM
100
AcDbLine
 10
-349.5604816941384
 20
28.85734139776881
 30
0.0
 11
-347.1489106941382
 21
30.6418103977688
 31
0.0
  0
LINE
  5
39F
330
6B
100
AcDbEntity
  8
0
  6
PHANTOM
100
AcDbLine
 10
-343.6122536941383
 20
20.8187733977688
 30
0.0
 11
-341.2006826941383
 21
22.60324139776881
 31
0.0
  0
LINE
  5
3A0
330
6B
100
AcDbEntity
  8
0
 62
     3
100
AcDbLine
 10
-319.6760276941383
 20
-33.14356060223119
 30
0.0
 11
-318.0919466941383
 21
-33.14356060223119
 31
0.0
  0
LINE
  5
3A1
330
6B
100
AcDbEntity
  8
0
 62
     3
100
AcDbLine
 10
-320.8814546941383
 20
-35.64356060223119
 30
0.0
 11
-323.1109566941382
 21
-35.64356060223119
 31
0.0
  0
ARC
  5
3A2
330
6B
100
AcDbEntity
  8
0
 62
     3
100
AcDbCircle
 10
-318.0919466941383
 20
-33.64356060223119
 30
0.0
 40
0.5
100
AcDbArc
 50
1.849136999999949
 51
90.0
  0
LINE
  5
3A3
330
6B
100
AcDbEntity
  8
0
 62
     3
100
AcDbLine
 10
-320.1717766941383
 20
-33.5785006022312
 30
0.0
 11
-320.3857046941383
 21
-35.20861960223121
 31
0.0
  0
LINE
  5
3A4
330
6B
100
AcDbEntity
  8
0
 62
     3
100
AcDbLine
 10
-317.5922076941383
 20
-33.6274266022312
 30
0.0
 11
-317.4464046941383
 21
-37.14356060223119
 31
0.0
  0
ARC
  5
3A5
330
6B
100
AcDbEntity
  8
0
 62
     3
100
AcDbCircle
 10
-320.8814546941383
 20
-35.14356060223119
 30
0.0
 40
0.5
100
AcDbArc
 50
270.0
 51
352.523528
  0
ARC
  5
3A6
330
6B
100
AcDbEntity
  8
0
 62
     3
100
AcDbCircle
 10
-319.6760276941383
 20
-33.64356060223119
 30
0.0
 40
0.5
100
AcDbArc
 50
90.0
 51
172.523528
  0
LINE
  5
3A7
330
6B
100
AcDbEntity
  8
0
 62
     3
100
AcDbLine
 10
-317.5922076941383
 20
-40.65969460223119
 30
0.0
 11
-317.4464046941383
 21
-37.14356060223119
 31
0.0
  0
ARC
  5
3A8
330
6B
100
AcDbEntity
  8
0
 62
     3
100
AcDbCircle
 10
-318.0919466941383
 20
-40.64356060223119
 30
0.0
 40
0.5
100
AcDbArc
 50
270.0
 51
358.1508630000001
  0
LINE
  5
3A9
330
6B
100
AcDbEntity
  8
0
 62
     3
100
AcDbLine
 10
-319.6760276941383
 20
-41.14356060223117
 30
0.0
 11
-318.0919466941383
 21
-41.14356060223117
 31
0.0
  0
ARC
  5
3AA
330
6B
100
AcDbEntity
  8
0
 62
     3
100
AcDbCircle
 10
-319.6760276941383
 20
-40.64356060223119
 30
0.0
 40
0.5
100
AcDbArc
 50
187.4764719999999
 51
270.0
  0
LINE
  5
3AB
330
6B
100
AcDbEntity
  8
0
 62
     3
100
AcDbLine
 10
-320.1717766941383
 20
-40.70861960223118
 30
0.0
 11
-320.3857046941383
 21
-39.0785006022312
 31
0.0
  0
ARC
  5
3AC
330
6B
100
AcDbEntity
  8
0
 62
     3
100
AcDbCircle
 10
-320.8814546941383
 20
-39.14356060223119
 30
0.0
 40
0.5
100
AcDbArc
 50
7.476471999999986
 51
90.0
  0
LINE
  5
3AD
330
6B
100
AcDbEntity
  8
0
 62
     3
100
AcDbLine
 10
-320.8814546941383
 20
-38.64356060223119
 30
0.0
 11
-323.1109566941382
 21
-38.64356060223119
 31
0.0
  0
ARC
  5
3AE
330
6B
100
AcDbEntity
  8
0
 62
     3
100
AcDbCircle
 10
-315.4463736941382
 20
5.239201397768806
 30
0.0
 40
8.0
100
AcDbArc
 50
135.2380910000006
 51
180.0
  0
LINE
  5
3AF
330
6B
100
AcDbEntity
  8
0
 62
     3
100
AcDbLine
 10
-323.4463736941382
 20
5.239201397768806
 30
0.0
 11
-323.4463736941382
 21
3.139530397768806
 31
0.0
  0
ARC
  5
3B0
330
6B
100
AcDbEntity
  8
0
 62
     3
100
AcDbCircle
 10
-315.4463736941382
 20
5.239201397768806
 30
0.0
 40
11.0
100
AcDbArc
 50
135.2380910000006
 51
169.9933789999997
  0
LINE
  5
3B1
330
6B
100
AcDbEntity
  8
0
 62
     3
100
AcDbLine
 10
-326.4463736941382
 20
4.740244397768806
 30
0.0
 11
-326.4463736941382
 21
3.139530397768806
 31
0.0
  0
ARC
  5
3B2
330
6B
100
AcDbEntity
  8
0
 62
     3
100
AcDbCircle
 10
-321.9507516941383
 20
35.06932139776881
 30
0.0
 40
15.029734
100
AcDbArc
 50
315.2580919999995
 51
194.8917239999999
  0
LINE
  5
3B3
330
6B
100
AcDbEntity
  8
0
 62
     3
100
AcDbLine
 10
-311.2753596941383
 20
24.48967439776881
 30
0.0
 11
-323.2568026941383
 21
12.98498739776881
 31
0.0
  0
LINE
  5
3B4
330
6B
100
AcDbEntity
  8
0
 62
     3
100
AcDbLine
 10
-309.1445056941383
 20
22.37793139776881
 30
0.0
 11
-321.1266856941382
 21
10.87250039776881
 31
0.0
  0
LINE
  5
3B5
330
6B
100
AcDbEntity
  8
0
 62
     3
100
AcDbLine
 10
-304.9507576941382
 20
18.1282403977688
 30
0.0
 11
-316.8664516941382
 21
6.647526397768807
 31
0.0
  0
LINE
  5
3B6
330
6B
100
AcDbEntity
  8
0
 62
     3
100
AcDbLine
 10
-319.9463736941382
 20
5.239201397768806
 30
0.0
 11
-319.9463736941382
 21
3.139530397768806
 31
0.0
  0
ARC
  5
3B7
330
6B
100
AcDbEntity
  8
0
 62
     3
100
AcDbCircle
 10
-315.4463736941382
 20
5.239201397768806
 30
0.0
 40
4.5
100
AcDbArc
 50
135.2380910000006
 51
180.0
  0
LINE
  5
3B8
330
6B
100
AcDbEntity
  8
0
 62
     3
100
AcDbLine
 10
-306.6853596941383
 20
19.9285623977688
 30
0.0
 11
-318.6010526941383
 21
8.447847397768807
 31
0.0
  0
ARC
  5
3B9
330
6B
100
AcDbEntity
  8
0
 62
     3
100
AcDbCircle
 10
-321.9507516941383
 20
35.06932139776881
 30
0.0
 40
21.5
100
AcDbArc
 50
315.0994489999996
 51
180.61621
  0
ARC
  5
3BA
330
6B
100
AcDbEntity
  8
0
 62
     3
100
AcDbCircle
 10
-344.3427456941383
 20
32.86737139776881
 30
0.0
 40
1.0
100
AcDbArc
 50
274.9999999999998
 51
5.616210000000019
  0
ARC
  5
3BB
330
6B
100
AcDbEntity
  8
0
 62
     3
100
AcDbCircle
 10
-341.5929826941383
 20
33.3847173977688
 30
0.0
 40
1.684604
100
AcDbArc
 50
4.90194200000012
 51
178.994654
  0
ARC
  5
3BC
330
6B
100
AcDbEntity
  8
0
 62
     3
100
AcDbCircle
 10
-338.4085116941383
 20
30.69279539776881
 30
0.0
 40
2.0
100
AcDbArc
 50
308.6360740000003
 51
14.89172399999984
  0
ARC
  5
3BD
330
6B
100
AcDbEntity
  8
0
 62
     3
100
AcDbCircle
 10
-321.9507516941383
 20
35.06932139776881
 30
0.0
 40
24.029734
100
AcDbArc
 50
180.0
 51
190.370381
  0
ARC
  5
3BE
330
6B
100
AcDbEntity
  8
0
 62
     3
100
AcDbCircle
 10
-346.5716166941382
 20
30.56370239776881
 30
0.0
 40
1.0
100
AcDbArc
 50
309.0038560000008
 51
10.37038100000003
  0
LINE
  5
3BF
330
6B
100
AcDbEntity
  8
0
  6
PHANTOM
100
AcDbLine
 10
-333.5688006941382
 20
9.767585397768806
 30
0.0
 11
-339.5334396941382
 21
17.82833239776881
 31
0.0
  0
ARC
  5
3C0
330
6B
100
AcDbEntity
  8
0
 62
     3
100
AcDbCircle
 10
-326.7714316941383
 20
7.237464397768807
 30
0.0
 40
0.5
100
AcDbArc
 50
269.3455450000015
 51
349.9933789999998
  0
ARC
  5
3C1
330
6B
100
AcDbEntity
  8
0
 62
     3
100
AcDbCircle
 10
-326.9463736941383
 20
4.740244397768806
 30
0.0
 40
0.5
100
AcDbArc
 50
0.0
 51
88.60610600000129
  0
ARC
  5
3C2
330
6B
100
AcDbEntity
  8
0
  6
PHANTOM
100
AcDbCircle
 10
-326.6704056941382
 20
16.08159439776881
 30
0.0
 40
9.344706999999999
100
AcDbArc
 50
221.6435209999991
 51
269.3455450000015
  0
ARC
  5
3C3
330
6B
100
AcDbEntity
  8
0
  6
PHANTOM
100
AcDbCircle
 10
-326.6704056941382
 20
16.08159439776881
 30
0.0
 40
10.844707
100
AcDbArc
 50
221.6435209999991
 51
268.6061060000012
  0
LINE
  5
3C4
330
6B
100
AcDbEntity
  8
0
 62
     3
100
AcDbLine
 10
-344.9509716941383
 20
8.240096397768807
 30
0.0
 11
-344.2344946941382
 21
6.740096397768807
 31
0.0
  0
LINE
  5
3C5
330
6B
100
AcDbEntity
  8
0
 62
     3
100
AcDbLine
 10
-361.9102446941383
 20
8.240096397768807
 30
0.0
 11
-344.9509716941383
 21
8.240096397768807
 31
0.0
  0
LINE
  5
3C6
330
6B
100
AcDbEntity
  8
0
 62
     3
100
AcDbLine
 10
-365.3588176941382
 20
7.192626397768806
 30
0.0
 11
-361.9102446941383
 21
8.240096397768807
 31
0.0
  0
ARC
  5
3C7
330
6B
100
AcDbEntity
  8
0
 62
     3
100
AcDbCircle
 10
-365.0681876941383
 20
6.235790397768807
 30
0.0
 40
1.0
100
AcDbArc
 50
106.8956400000002
 51
197.0739659999997
  0
LINE
  5
3C8
330
6B
100
AcDbEntity
  8
0
 62
     3
100
AcDbLine
 10
-365.7699066941382
 20
5.114532397768806
 30
0.0
 11
-366.0241146941382
 21
5.942184397768807
 31
0.0
  0
ARC
  5
3C9
330
6B
100
AcDbEntity
  8
0
 62
     3
100
AcDbCircle
 10
-364.8139806941383
 20
5.408138397768808
 30
0.0
 40
1.0
100
AcDbArc
 50
197.0739659999997
 51
286.7970189999994
  0
LINE
  5
3CA
330
6B
100
AcDbEntity
  8
0
 62
     3
100
AcDbLine
 10
-364.5249986941382
 20
4.450804397768806
 30
0.0
 11
-361.9102446941383
 21
5.240096397768806
 31
0.0
  0
LINE
  5
3CB
330
6B
100
AcDbEntity
  8
0
  6
DASHED
100
AcDbLine
 10
-359.0645526941382
 20
5.240096397768806
 30
0.0
 11
-359.0645526941382
 21
8.240096397768807
 31
0.0
  0
LINE
  5
3CC
330
6B
100
AcDbEntity
  8
0
  6
DASHED
100
AcDbLine
 10
-349.0645526941382
 20
5.240096397768806
 30
0.0
 11
-349.0645526941382
 21
8.240096397768807
 31
0.0
  0
LINE
  5
3CD
330
6B
100
AcDbEntity
  8
0
 62
     3
100
AcDbLine
 10
-344.2344946941382
 20
6.740096397768807
 30
0.0
 11
-326.7201946941382
 21
6.740096397768807
 31
0.0
  0
LINE
  5
3CE
330
6B
100
AcDbEntity
  8
0
 62
     3
100
AcDbLine
 10
-361.9102446941383
 20
5.240096397768806
 30
0.0
 11
-326.9342106941382
 21
5.240096397768806
 31
0.0
  0
LINE
  5
3CF
330
6B
100
AcDbEntity
  8
0
 62
     3
100
AcDbLine
 10
-348.8277656941382
 20
23.77321939776881
 30
0.0
 11
-351.6709536941382
 21
27.58515739776881
 31
0.0
  0
ARC
  5
3D0
330
6B
100
AcDbEntity
  8
0
 62
     3
100
AcDbCircle
 10
-346.4230006941382
 20
25.56684839776881
 30
0.0
 40
3.0
100
AcDbArc
 50
216.717939
 51
308.6360740000003
  0
LINE
  5
3D1
330
6B
100
AcDbEntity
  8
0
  6
CENTER
100
AcDbLine
 10
-311.8865826941383
 20
-37.14356060223119
 30
0.0
 11
-367.1633926941382
 21
-37.14356060223119
 31
0.0
  0
LINE
  5
3D2
330
6B
100
AcDbEntity
  8
0
 62
     3
100
AcDbLine
 10
-340.8541526941383
 20
28.16050539776881
 30
0.0
 11
-344.7632936941383
 21
25.03584739776881
 31
0.0
  0
LINE
  5
3D3
330
6B
100
AcDbEntity
  8
0
 62
     3
100
AcDbLine
 10
-342.7272676941381
 20
30.50388739776881
 30
0.0
 11
-346.6364086941382
 21
27.37922939776881
 31
0.0
  0
ARC
  5
3D4
330
6B
100
AcDbEntity
  8
0
 62
     3
100
AcDbCircle
 10
-341.7907096941382
 20
29.33219639776881
 30
0.0
 40
1.5
100
AcDbArc
 50
308.6360740000003
 51
128.6360740000003
  0
ARC
  5
3D5
330
6B
100
AcDbEntity
  8
0
 62
     3
100
AcDbCircle
 10
-345.6998516941383
 20
26.20753839776881
 30
0.0
 40
1.5
100
AcDbArc
 50
128.6360740000003
 51
308.6360740000003
  0
TEXT
  5
3D6
330
6B
100
AcDbEntity
  8
0
 62
     3
100
AcDbText
 10
-303.1702316941383
 20
-35.16248325337059
 30
0.0
 40
4.5
  1
材質　6ナイロン樹脂 耐候性グレード
  7
高4.5
100
AcDbText
  0
LINE
  5
3D7
330
6B
100
AcDbEntity
  8
0
 62
     3
100
AcDbLine
 10
-343.4507516941383
 20
35.06932139776881
 30
0.0
 11
-343.3475456941383
 21
32.96523539776881
 31
0.0
  0
LINE
  5
3D8
330
6B
100
AcDbEntity
  8
0
 62
     3
100
AcDbLine
 10
-416.0192366941381
 20
1.639448397768806
 30
0.0
 11
-427.0192366941381
 21
1.639448397768806
 31
0.0
  0
ARC
  5
3D9
330
6B
100
AcDbEntity
  8
0
 62
     3
100
AcDbCircle
 10
-427.0192366941381
 20
-0.3605516022311924
 30
0.0
 40
2.0
100
AcDbArc
 50
90.0
 51
180.0
  0
ARC
  5
3DA
330
6B
100
AcDbEntity
  8
0
 62
     3
100
AcDbCircle
 10
-416.0192366941381
 20
-0.3605516022311924
 30
0.0
 40
2.0
100
AcDbArc
 50
0.0
 51
90.0
  0
LINE
  5
3DB
330
6B
100
AcDbEntity
  8
0
 62
     3
100
AcDbLine
 10
-415.7174206941381
 20
1.601161397768806
 30
0.0
 11
-416.2496786941382
 21
3.101161397768806
 31
0.0
  0
LINE
  5
3DC
330
6B
100
AcDbEntity
  8
0
 62
     3
100
AcDbLine
 10
-429.0192366941381
 20
-9.360551602231193
 30
0.0
 11
-429.0192366941381
 21
-0.3605516022311924
 31
0.0
  0
LINE
  5
3DD
330
6B
100
AcDbEntity
  8
0
 62
     3
100
AcDbLine
 10
-414.0192366941382
 20
-9.360551602231193
 30
0.0
 11
-414.0192366941382
 21
-0.3605516022311924
 31
0.0
  0
ARC
  5
3DE
330
6B
100
AcDbEntity
  8
0
 62
     3
100
AcDbCircle
 10
-427.0192366941381
 20
-9.360551602231193
 30
0.0
 40
2.0
100
AcDbArc
 50
180.0
 51
270.0
  0
LINE
  5
3DF
330
6B
100
AcDbEntity
  8
0
 62
     3
100
AcDbLine
 10
-427.0192366941381
 20
-11.36055160223119
 30
0.0
 11
-424.0192366941381
 21
-11.36055160223119
 31
0.0
  0
LINE
  5
3E0
330
6B
100
AcDbEntity
  8
0
 62
     3
100
AcDbLine
 10
-416.0192366941381
 20
-11.36055160223119
 30
0.0
 11
-419.0192366941381
 21
-11.36055160223119
 31
0.0
  0
ARC
  5
3E1
330
6B
100
AcDbEntity
  8
0
 62
     3
100
AcDbCircle
 10
-416.0192366941381
 20
-9.360551602231193
 30
0.0
 40
2.0
100
AcDbArc
 50
270.0
 51
0.0
  0
LINE
  5
3E2
330
6B
100
AcDbEntity
  8
0
 62
     3
100
AcDbLine
 10
-424.0192366941381
 20
-11.36055160223119
 30
0.0
 11
-419.0192366941381
 21
-11.36055160223119
 31
0.0
  0
LINE
  5
3E3
330
6B
100
AcDbEntity
  8
0
 62
     3
100
AcDbLine
 10
-427.3210526941381
 20
1.601161397768806
 30
0.0
 11
-426.7887946941382
 21
3.101161397768806
 31
0.0
  0
LINE
  5
3E4
330
6B
100
AcDbEntity
  8
0
 62
     3
100
AcDbLine
 10
-426.7752086941381
 20
3.139448397768807
 30
0.0
 11
-416.2632636941381
 21
3.139448397768807
 31
0.0
  0
LINE
  5
3E5
330
6B
100
AcDbEntity
  8
0
 62
     3
100
AcDbLine
 10
-418.5192366941381
 20
59.06932139776881
 30
0.0
 11
-424.5192366941381
 21
59.06932139776881
 31
0.0
  0
LINE
  5
3E6
330
6B
100
AcDbEntity
  8
0
 62
     3
100
AcDbLine
 10
-416.5192366941381
 20
52.0990553977688
 30
0.0
 11
-416.5192366941381
 21
31.99670639776881
 31
0.0
  0
LINE
  5
3E7
330
6B
100
AcDbEntity
  8
0
 62
     3
100
AcDbLine
 10
-417.5192366941383
 20
58.06932139776879
 30
0.0
 11
-417.5192366941383
 21
31.96442139776881
 31
0.0
  0
LINE
  5
3E8
330
6B
100
AcDbEntity
  8
0
 62
     3
100
AcDbLine
 10
-425.5192366941383
 20
58.06932139776879
 30
0.0
 11
-425.5192366941383
 21
31.96442139776881
 31
0.0
  0
LINE
  5
3E9
330
6B
100
AcDbEntity
  8
0
 62
     3
100
AcDbLine
 10
-426.5192366941382
 20
52.0990553977688
 30
0.0
 11
-426.5192366941382
 21
31.99670639776881
 31
0.0
  0
ARC
  5
3EA
330
6B
100
AcDbEntity
  8
0
 62
     3
100
AcDbCircle
 10
-424.5192366941381
 20
58.06932139776879
 30
0.0
 40
1.0
100
AcDbArc
 50
90.0
 51
180.0
  0
ARC
  5
3EB
330
6B
100
AcDbEntity
  8
0
 62
     3
100
AcDbCircle
 10
-418.5192366941381
 20
58.06932139776879
 30
0.0
 40
1.0
100
AcDbArc
 50
0.0
 51
90.0
  0
ARC
  5
3EC
330
6B
100
AcDbEntity
  8
0
 62
     3
100
AcDbCircle
 10
-417.5192366941383
 20
52.0990553977688
 30
0.0
 40
1.0
100
AcDbArc
 50
0.0
 51
90.0
  0
ARC
  5
3ED
330
6B
100
AcDbEntity
  8
0
 62
     3
100
AcDbCircle
 10
-425.5192366941383
 20
52.0990553977688
 30
0.0
 40
1.0
100
AcDbArc
 50
90.0
 51
180.0
  0
LINE
  5
3EE
330
6B
100
AcDbEntity
  8
0
 62
     3
100
AcDbLine
 10
-427.0192366941381
 20
8.240096397768807
 30
0.0
 11
-416.0192366941381
 21
8.240096397768807
 31
0.0
  0
LINE
  5
3EF
330
6B
100
AcDbEntity
  8
0
 62
     3
100
AcDbLine
 10
-427.0192366941381
 20
5.240096397768806
 30
0.0
 11
-416.0192366941381
 21
5.240096397768806
 31
0.0
  0
LINE
  5
3F0
330
6B
100
AcDbEntity
  8
0
 62
     3
100
AcDbLine
 10
-427.5192366941381
 20
5.740096397768807
 30
0.0
 11
-427.5192366941381
 21
7.740096397768807
 31
0.0
  0
LINE
  5
3F1
330
6B
100
AcDbEntity
  8
0
 62
     3
100
AcDbLine
 10
-415.5192366941381
 20
5.740096397768807
 30
0.0
 11
-415.5192366941381
 21
7.740096397768807
 31
0.0
  0
ARC
  5
3F2
330
6B
100
AcDbEntity
  8
0
 62
     3
100
AcDbCircle
 10
-416.0192366941381
 20
7.740096397768807
 30
0.0
 40
0.5
100
AcDbArc
 50
0.0
 51
90.0
  0
ARC
  5
3F3
330
6B
100
AcDbEntity
  8
0
 62
     3
100
AcDbCircle
 10
-416.0192366941381
 20
5.740096397768807
 30
0.0
 40
0.5
100
AcDbArc
 50
270.0
 51
0.0
  0
ARC
  5
3F4
330
6B
100
AcDbEntity
  8
0
 62
     3
100
AcDbCircle
 10
-427.0192366941381
 20
7.740096397768807
 30
0.0
 40
0.5
100
AcDbArc
 50
90.0
 51
180.0
  0
ARC
  5
3F5
330
6B
100
AcDbEntity
  8
0
 62
     3
100
AcDbCircle
 10
-427.0192366941381
 20
5.740096397768807
 30
0.0
 40
0.5
100
AcDbArc
 50
180.0
 51
270.0
  0
LINE
  5
3F6
330
6B
100
AcDbEntity
  8
0
 62
     3
100
AcDbLine
 10
-416.5192366941381
 20
31.99670639776881
 30
0.0
 11
-416.5192366941381
 21
8.240096397768807
 31
0.0
  0
LINE
  5
3F7
330
6B
100
AcDbEntity
  8
0
 62
     3
100
AcDbLine
 10
-416.5192366941381
 20
5.240096397768806
 30
0.0
 11
-416.5192366941381
 21
3.139448397768807
 31
0.0
  0
LINE
  5
3F8
330
6B
100
AcDbEntity
  8
0
 62
     3
100
AcDbLine
 10
-426.5192366941382
 20
31.99670639776881
 30
0.0
 11
-426.5192366941382
 21
8.240096397768807
 31
0.0
  0
LINE
  5
3F9
330
6B
100
AcDbEntity
  8
0
 62
     3
100
AcDbLine
 10
-426.5192366941382
 20
5.240096397768806
 30
0.0
 11
-426.5192366941382
 21
3.139448397768807
 31
0.0
  0
LINE
  5
3FA
330
6B
100
AcDbEntity
  8
0
  6
CENTER
100
AcDbLine
 10
-421.5192366941383
 20
-12.58003260223119
 30
0.0
 11
-421.5192366941383
 21
60.29250339776881
 31
0.0
  0
LINE
  5
3FB
330
6B
100
AcDbEntity
  8
0
  6
CENTER
100
AcDbLine
 10
-321.9507516941383
 20
-12.58003260223119
 30
0.0
 11
-321.9507516941383
 21
60.79756739776881
 31
0.0
  0
LINE
  5
530
330
6B
100
AcDbEntity
  8
0
 62
     3
100
AcDbLine
 10
-476.1718266941382
 20
90.19568739776881
 30
0.0
 11
-476.1718266941382
 21
-89.80431260223118
 31
0.0
  0
LINE
  5
531
330
6B
100
AcDbEntity
  8
0
 62
     3
100
AcDbLine
 10
-199.1718266941383
 20
-89.80431260223118
 30
0.0
 11
-199.1718266941383
 21
90.19568739776881
 31
0.0
  0
LINE
  5
532
330
6B
100
AcDbEntity
  8
0
 62
     3
100
AcDbLine
 10
-476.1718266941382
 20
-89.80431260223118
 30
0.0
 11
-199.1718266941383
 21
-89.80431260223118
 31
0.0
  0
LINE
  5
533
330
6B
100
AcDbEntity
  8
0
 62
     3
100
AcDbLine
 10
-337.6718266941382
 20
98.66830469776878
 30
0.0
 11
-337.6718266941382
 21
97.41974558776881
 31
0.0
  0
LINE
  5
534
330
6B
100
AcDbEntity
  8
0
 62
     3
100
AcDbLine
 10
-349.5851654141383
 20
92.02901511776881
 30
0.0
 11
-349.1494175041382
 21
91.80154697776881
 31
0.0
  0
LINE
  5
535
330
6B
100
AcDbEntity
  8
0
 62
     3
100
AcDbLine
 10
-349.5851654141383
 20
88.29838464776878
 30
0.0
 11
-349.1494175041382
 21
88.5258527777688
 31
0.0
  0
LINE
  5
536
330
6B
100
AcDbEntity
  8
0
 62
     3
100
AcDbLine
 10
-349.1494175041382
 20
91.80154697776881
 30
0.0
 11
-349.1494175041382
 21
88.5258527777688
 31
0.0
  0
LINE
  5
537
330
6B
100
AcDbEntity
  8
0
 62
     3
100
AcDbLine
 10
-348.0459000841382
 20
88.29838464776878
 30
0.0
 11
-348.4816479941382
 21
88.5258527777688
 31
0.0
  0
LINE
  5
538
330
6B
100
AcDbEntity
  8
0
 62
     3
100
AcDbLine
 10
-348.4816479941382
 20
90.5227115977688
 30
0.0
 11
-348.4816479941382
 21
88.5258527777688
 31
0.0
  0
LINE
  5
539
330
6B
100
AcDbEntity
  8
0
 62
     3
100
AcDbLine
 10
-345.5040373041384
 20
92.02901511776881
 30
0.0
 11
-345.9397852141382
 21
91.80154697776881
 31
0.0
  0
LINE
  5
53A
330
6B
100
AcDbEntity
  8
0
 62
     3
100
AcDbLine
 10
-347.0433026341384
 20
92.02901511776881
 30
0.0
 11
-346.6075547241382
 21
91.80154697776881
 31
0.0
  0
LINE
  5
53B
330
6B
100
AcDbEntity
  8
0
 62
     3
100
AcDbLine
 10
-346.6075547241382
 20
91.80154697776881
 30
0.0
 11
-346.6075547241382
 21
90.35920991776881
 31
0.0
  0
LINE
  5
53C
330
6B
100
AcDbEntity
  8
0
 62
     3
100
AcDbLine
 10
-345.9397852141382
 20
91.80154697776881
 30
0.0
 11
-345.9397852141382
 21
88.08682349776878
 31
0.0
  0
LINE
  5
53D
330
6B
100
AcDbEntity
  8
0
 62
     3
100
AcDbLine
 10
-345.2887401041381
 20
92.0290124877688
 30
0.0
 11
-344.8529937641382
 21
91.80154135776879
 31
0.0
  0
LINE
  5
53E
330
6B
100
AcDbEntity
  8
0
 62
     3
100
AcDbLine
 10
-345.2888180741382
 20
88.29843461776878
 30
0.0
 11
-344.8530622241382
 21
88.5258875477688
 31
0.0
  0
LINE
  5
53F
330
6B
100
AcDbEntity
  8
0
 62
     3
100
AcDbLine
 10
-344.8529937641382
 20
91.80154135776879
 30
0.0
 11
-344.8529937641382
 21
88.5258875477688
 31
0.0
  0
LINE
  5
540
330
6B
100
AcDbEntity
  8
0
 62
     3
100
AcDbLine
 10
-343.3592037041382
 20
92.0289888177688
 30
0.0
 11
-343.7949548041382
 21
91.80152678776876
 31
0.0
  0
LINE
  5
541
330
6B
100
AcDbEntity
  8
0
 62
     3
100
AcDbLine
 10
-343.7949548041382
 20
91.80152678776876
 30
0.0
 11
-343.7949548041382
 21
88.52587297776878
 31
0.0
  0
LINE
  5
542
330
6B
100
AcDbEntity
  8
0
 62
     3
100
AcDbLine
 10
-343.3592037041382
 20
88.29841093776883
 30
0.0
 11
-343.7949548041382
 21
88.52587297776878
 31
0.0
  0
LINE
  5
543
330
6B
100
AcDbEntity
  8
0
 62
     3
100
AcDbLine
 10
-339.6689502641383
 20
92.02894781776882
 30
0.0
 11
-339.2332031441382
 21
91.80147817776878
 31
0.0
  0
LINE
  5
544
330
6B
100
AcDbEntity
  8
0
 62
     3
100
AcDbLine
 10
-339.2332031441382
 20
91.80147817776878
 30
0.0
 11
-339.2332603141382
 21
88.52582436776881
 31
0.0
  0
LINE
  5
545
330
6B
100
AcDbEntity
  8
0
 62
     3
100
AcDbLine
 10
-339.6690153841382
 20
88.29836993776879
 30
0.0
 11
-339.2332603141382
 21
88.52582436776881
 31
0.0
  0
LINE
  5
546
330
6B
100
AcDbEntity
  8
0
 62
     3
100
AcDbLine
 10
-337.7166893041382
 20
92.02894781776882
 30
0.0
 11
-338.1524364241383
 21
91.80147817776878
 31
0.0
  0
LINE
  5
547
330
6B
100
AcDbEntity
  8
0
 62
     3
100
AcDbLine
 10
-337.7166241941383
 20
88.29836993776879
 30
0.0
 11
-338.1523792541383
 21
88.52582436776881
 31
0.0
  0
LINE
  5
548
330
6B
100
AcDbEntity
  8
0
 62
     3
100
AcDbLine
 10
-337.5129614441382
 20
92.02894781776882
 30
0.0
 11
-337.0772143241382
 21
91.80147817776878
 31
0.0
  0
LINE
  5
549
330
6B
100
AcDbEntity
  8
0
 62
     3
100
AcDbLine
 10
-337.5130265541383
 20
88.29836993776879
 30
0.0
 11
-337.0772714941383
 21
88.52582436776881
 31
0.0
  0
LINE
  5
54A
330
6B
100
AcDbEntity
  8
0
 62
     3
100
AcDbLine
 10
-335.5607004741382
 20
92.02894781776882
 30
0.0
 11
-335.9964475941382
 21
91.80147817776878
 31
0.0
  0
LINE
  5
54B
330
6B
100
AcDbEntity
  8
0
 62
     3
100
AcDbLine
 10
-335.9964475941382
 20
91.80147817776878
 30
0.0
 11
-335.9963904241382
 21
88.52582436776881
 31
0.0
  0
LINE
  5
54C
330
6B
100
AcDbEntity
  8
0
 62
     3
100
AcDbLine
 10
-335.5606353641382
 20
88.29836993776879
 30
0.0
 11
-335.9963904241382
 21
88.52582436776881
 31
0.0
  0
LINE
  5
54D
330
6B
100
AcDbEntity
  8
0
 62
     3
100
AcDbLine
 10
-337.0772392241382
 20
90.37434505776881
 30
0.0
 11
-338.1524115141382
 21
90.37434505776881
 31
0.0
  0
LINE
  5
54E
330
6B
100
AcDbEntity
  8
0
 62
     3
100
AcDbLine
 10
-337.0772465841382
 20
89.9530546977688
 30
0.0
 11
-338.1524041641382
 21
89.9530546977688
 31
0.0
  0
LINE
  5
54F
330
6B
100
AcDbEntity
  8
0
 62
     3
100
AcDbLine
 10
-337.0772143241382
 20
91.80147817776878
 30
0.0
 11
-337.0772392241382
 21
90.37434505776881
 31
0.0
  0
LINE
  5
550
330
6B
100
AcDbEntity
  8
0
 62
     3
100
AcDbLine
 10
-337.0772465841382
 20
89.9530546977688
 30
0.0
 11
-337.0772714941383
 21
88.52582436776881
 31
0.0
  0
LINE
  5
551
330
6B
100
AcDbEntity
  8
0
 62
     3
100
AcDbLine
 10
-338.1524364241383
 20
91.80147817776878
 30
0.0
 11
-338.1524115141382
 21
90.37434505776881
 31
0.0
  0
LINE
  5
552
330
6B
100
AcDbEntity
  8
0
 62
     3
100
AcDbLine
 10
-338.1524041641382
 20
89.9530546977688
 30
0.0
 11
-338.1523792541383
 21
88.52582436776881
 31
0.0
  0
LINE
  5
553
330
6B
100
AcDbEntity
  8
0
 62
     3
100
AcDbLine
 10
-335.3537413541382
 20
92.02894781776882
 30
0.0
 11
-334.9179942341383
 21
91.80147817776878
 31
0.0
  0
LINE
  5
554
330
6B
100
AcDbEntity
  8
0
 62
     3
100
AcDbLine
 10
-334.9179942341383
 20
91.80147817776878
 30
0.0
 11
-334.9180514041383
 21
88.52582436776881
 31
0.0
  0
LINE
  5
555
330
6B
100
AcDbEntity
  8
0
 62
     3
100
AcDbLine
 10
-335.3538064641382
 20
88.29836993776879
 30
0.0
 11
-334.9180514041383
 21
88.52582436776881
 31
0.0
  0
LINE
  5
556
330
6B
100
AcDbEntity
  8
0
 62
     3
100
AcDbLine
 10
-333.4242310841383
 20
92.02894781776882
 30
0.0
 11
-333.8599782041382
 21
91.80147817776878
 31
0.0
  0
LINE
  5
557
330
6B
100
AcDbEntity
  8
0
 62
     3
100
AcDbLine
 10
-333.8599782041382
 20
91.80147817776878
 30
0.0
 11
-333.8599210341382
 21
88.52582436776881
 31
0.0
  0
LINE
  5
558
330
6B
100
AcDbEntity
  8
0
 62
     3
100
AcDbLine
 10
-333.4241659741382
 20
88.29836993776879
 30
0.0
 11
-333.8599210341382
 21
88.52582436776881
 31
0.0
  0
LINE
  5
559
330
6B
100
AcDbEntity
  8
0
 62
     3
100
AcDbLine
 10
-333.2098715241383
 20
92.02894781776882
 30
0.0
 11
-332.7741243941382
 21
91.80147817776878
 31
0.0
  0
LINE
  5
55A
330
6B
100
AcDbEntity
  8
0
 62
     3
100
AcDbLine
 10
-332.7741243941382
 20
91.80147817776878
 30
0.0
 11
-332.7741815641382
 21
88.52582436776881
 31
0.0
  0
LINE
  5
55B
330
6B
100
AcDbEntity
  8
0
 62
     3
100
AcDbLine
 10
-333.2099366341382
 20
88.29836993776879
 30
0.0
 11
-332.7741815641382
 21
88.52582436776881
 31
0.0
  0
ARC
  5
55C
330
6B
100
AcDbEntity
  8
0
 62
     3
100
AcDbCircle
 10
-341.0608615341382
 20
90.17308963776882
 30
0.0
 40
2.086285909999999
100
AcDbArc
 50
97.70152351000044
 51
270.0
  0
ARC
  5
55D
330
6B
100
AcDbEntity
  8
0
 62
     3
100
AcDbCircle
 10
-328.1802606941381
 20
90.15213300776879
 30
0.0
 40
2.108943379999999
100
AcDbArc
 50
0.3142502700000911
 51
69.0055824499997
  0
ARC
  5
55E
330
6B
100
AcDbEntity
  8
0
 62
     3
100
AcDbCircle
 10
-327.7195853741382
 20
90.15213300776879
 30
0.0
 40
2.108943379999999
100
AcDbArc
 50
110.9944175500003
 51
148.1166110199997
  0
ARC
  5
55F
330
6B
100
AcDbEntity
  8
0
 62
     3
100
AcDbCircle
 10
-328.1802606941381
 20
90.17526674776879
 30
0.0
 40
2.108943379999999
100
AcDbArc
 50
290.9944175500003
 51
359.6857497299998
  0
ARC
  5
560
330
6B
100
AcDbEntity
  8
0
 62
     3
100
AcDbCircle
 10
-327.7195853741382
 20
90.17526674776879
 30
0.0
 40
2.108943379999999
100
AcDbArc
 50
211.8833889800002
 51
249.0055824499997
  0
ARC
  5
561
330
6B
100
AcDbEntity
  8
0
 62
     3
100
AcDbCircle
 10
-327.9499230341381
 20
91.02650527776878
 30
0.0
 40
1.214070989999998
100
AcDbArc
 50
64.3651718999996
 51
115.6348281000004
  0
ARC
  5
562
330
6B
100
AcDbEntity
  8
0
 62
     3
100
AcDbCircle
 10
-327.9499230341381
 20
89.30089448776875
 30
0.0
 40
1.214070989999998
100
AcDbArc
 50
244.3651718999996
 51
295.6348281000004
  0
ARC
  5
563
330
6B
100
AcDbEntity
  8
0
 62
     3
100
AcDbCircle
 10
-327.9499230341381
 20
91.04956695776881
 30
0.0
 40
0.59585563
100
AcDbArc
 50
19.48660554000024
 51
160.5133944599996
  0
ARC
  5
564
330
6B
100
AcDbEntity
  8
0
 62
     3
100
AcDbCircle
 10
-327.9499230341381
 20
89.30089448776875
 30
0.0
 40
1.214070989999998
100
AcDbArc
 50
244.3651718999996
 51
295.6348281000004
  0
ARC
  5
565
330
6B
100
AcDbEntity
  8
0
 62
     3
100
AcDbCircle
 10
-327.9499230341381
 20
89.27783280776878
 30
0.0
 40
0.59585563
100
AcDbArc
 50
199.4866055400002
 51
340.5133944599998
  0
ARC
  5
566
330
6B
100
AcDbEntity
  8
0
 62
     3
100
AcDbCircle
 10
-332.6923955341382
 20
67.93564003776879
 30
0.0
 40
26.04
100
AcDbArc
 50
69.50571479999791
 51
81.68998807000063
  0
ARC
  5
567
330
6B
100
AcDbEntity
  8
0
 62
     3
100
AcDbCircle
 10
-332.6923955341382
 20
112.3917597177688
 30
0.0
 40
26.04
100
AcDbArc
 50
278.3100119299994
 51
290.4942851999985
  0
ARC
  5
568
330
6B
100
AcDbEntity
  8
0
 62
     3
100
AcDbCircle
 10
-324.3841914141382
 20
90.16369987776878
 30
0.0
 40
2.31
100
AcDbArc
 50
290.4942851999985
 51
69.50571479999791
  0
ARC
  5
569
330
6B
100
AcDbEntity
  8
0
 62
     3
100
AcDbCircle
 10
-351.6841914141381
 20
90.16369987776878
 30
0.0
 40
2.31
100
AcDbArc
 50
110.4942852000021
 51
249.5057147999979
  0
ARC
  5
56A
330
6B
100
AcDbEntity
  8
0
 62
     3
100
AcDbCircle
 10
-343.3759872841382
 20
67.93564003776879
 30
0.0
 40
26.04
100
AcDbArc
 50
98.31001192999938
 51
110.4942852000021
  0
ARC
  5
56B
330
6B
100
AcDbEntity
  8
0
 62
     3
100
AcDbCircle
 10
-343.3759872841382
 20
112.3917597177688
 30
0.0
 40
26.04
100
AcDbArc
 50
249.5057147999979
 51
261.6899880700006
  0
ARC
  5
56C
330
6B
100
AcDbEntity
  8
0
 62
     3
100
AcDbCircle
 10
-338.0341914141383
 20
31.3636998777688
 30
0.0
 40
62.99999987
100
AcDbArc
 50
81.68998807000063
 51
98.31001192999938
  0
ARC
  5
56D
330
6B
100
AcDbEntity
  8
0
 62
     3
100
AcDbCircle
 10
-338.0341914141383
 20
148.9636998777688
 30
0.0
 40
62.99999987
100
AcDbArc
 50
261.6899880700006
 51
278.3100119299994
  0
ARC
  5
56E
330
6B
100
AcDbEntity
  8
0
 62
     3
100
AcDbCircle
 10
-338.0341914141383
 20
31.3636998777688
 30
0.0
 40
62.36999987
100
AcDbArc
 50
81.68998807000063
 51
98.31001192999938
  0
ARC
  5
56F
330
6B
100
AcDbEntity
  8
0
 62
     3
100
AcDbCircle
 10
-338.0341914141383
 20
148.9636998777688
 30
0.0
 40
62.36999987
100
AcDbArc
 50
261.6899880700006
 51
278.3100119299994
  0
ARC
  5
570
330
6B
100
AcDbEntity
  8
0
 62
     3
100
AcDbCircle
 10
-332.6923955341382
 20
112.3917597177688
 30
0.0
 40
25.41
100
AcDbArc
 50
278.3100119299994
 51
290.4942851999985
  0
ARC
  5
571
330
6B
100
AcDbEntity
  8
0
 62
     3
100
AcDbCircle
 10
-332.6923955341382
 20
67.93564003776879
 30
0.0
 40
25.41
100
AcDbArc
 50
69.50571479999791
 51
81.68998807000063
  0
ARC
  5
572
330
6B
100
AcDbEntity
  8
0
 62
     3
100
AcDbCircle
 10
-324.3841914141382
 20
90.16369987776878
 30
0.0
 40
1.679999999999999
100
AcDbArc
 50
290.4942851999985
 51
69.50571479999791
  0
ARC
  5
573
330
6B
100
AcDbEntity
  8
0
 62
     3
100
AcDbCircle
 10
-351.6841914141381
 20
90.16369987776878
 30
0.0
 40
1.679999999999999
100
AcDbArc
 50
110.4942852000021
 51
249.5057147999979
  0
ARC
  5
574
330
6B
100
AcDbEntity
  8
0
 62
     3
100
AcDbCircle
 10
-343.3759872841382
 20
67.93564003776879
 30
0.0
 40
25.41
100
AcDbArc
 50
98.31001192999938
 51
110.4942852000021
  0
ARC
  5
575
330
6B
100
AcDbEntity
  8
0
 62
     3
100
AcDbCircle
 10
-343.3759872841382
 20
112.3917597177688
 30
0.0
 40
25.41
100
AcDbArc
 50
249.5057147999979
 51
261.6899880700006
  0
LINE
  5
576
330
6B
100
AcDbEntity
  8
0
 62
     3
100
AcDbLine
 10
-333.4242303041382
 20
88.08682349776878
 30
0.0
 11
-335.3537421341382
 21
88.08682349776878
 31
0.0
  0
LINE
  5
577
330
6B
100
AcDbEntity
  8
0
 62
     3
100
AcDbLine
 10
-333.4242303041382
 20
88.29838464776878
 30
0.0
 11
-333.4242303041382
 21
88.08682349776878
 31
0.0
  0
LINE
  5
578
330
6B
100
AcDbEntity
  8
0
 62
     3
100
AcDbLine
 10
-335.5606996941382
 20
92.24047754776881
 30
0.0
 11
-337.5129622241383
 21
92.24047754776881
 31
0.0
  0
LINE
  5
579
330
6B
100
AcDbEntity
  8
0
 62
     3
100
AcDbLine
 10
-335.5606996941382
 20
92.24047754776881
 30
0.0
 11
-335.5606996941382
 21
92.02901511776881
 31
0.0
  0
LINE
  5
57A
330
6B
100
AcDbEntity
  8
0
 62
     3
100
AcDbLine
 10
-335.5606996941382
 20
88.29838464776878
 30
0.0
 11
-335.5606996941382
 21
88.0867247877688
 31
0.0
  0
LINE
  5
57B
330
6B
100
AcDbEntity
  8
0
 62
     3
100
AcDbLine
 10
-335.5606996941382
 20
88.0867247877688
 30
0.0
 11
-337.5129622241383
 21
88.0867247877688
 31
0.0
  0
LINE
  5
57C
330
6B
100
AcDbEntity
  8
0
 62
     3
100
AcDbLine
 10
-333.4242303041382
 20
92.24057625776881
 30
0.0
 11
-333.4242303041382
 21
92.02901511776881
 31
0.0
  0
LINE
  5
57D
330
6B
100
AcDbEntity
  8
0
 62
     3
100
AcDbLine
 10
-333.4242303041382
 20
92.24057625776881
 30
0.0
 11
-335.3537421341382
 21
92.24057625776881
 31
0.0
  0
LINE
  5
57E
330
6B
100
AcDbEntity
  8
0
 62
     3
100
AcDbLine
 10
-335.3537421341382
 20
92.24057625776881
 30
0.0
 11
-335.3537421341382
 21
92.02901511776881
 31
0.0
  0
LINE
  5
57F
330
6B
100
AcDbEntity
  8
0
 62
     3
100
AcDbLine
 10
-333.2098723041382
 20
88.29838464776878
 30
0.0
 11
-333.2098723041382
 21
88.08682349776878
 31
0.0
  0
LINE
  5
580
330
6B
100
AcDbEntity
  8
0
 62
     3
100
AcDbLine
 10
-331.2255717441382
 20
88.08682349776878
 30
0.0
 11
-333.2098723041382
 21
88.08682349776878
 31
0.0
  0
LINE
  5
581
330
6B
100
AcDbEntity
  8
0
 62
     3
100
AcDbLine
 10
-331.7161083741382
 20
91.57280673776879
 30
0.0
 11
-331.7161083741382
 21
88.7545930177688
 31
0.0
  0
LINE
  5
582
330
6B
100
AcDbEntity
  8
0
 62
     3
100
AcDbLine
 10
-331.7161083741382
 20
88.7545930177688
 30
0.0
 11
-331.5260594041382
 21
88.7545930177688
 31
0.0
  0
ARC
  5
583
330
6B
100
AcDbEntity
  8
0
 62
     3
100
AcDbCircle
 10
-332.4978451441382
 20
90.16369987776878
 30
0.0
 40
1.71170957
100
AcDbArc
 50
304.5919552700023
 51
55.4080447299977
  0
LINE
  5
584
330
6B
100
AcDbEntity
  8
0
 62
     3
100
AcDbLine
 10
-331.2255717441382
 20
92.24057625776881
 30
0.0
 11
-333.2098723041382
 21
92.24057625776881
 31
0.0
  0
LINE
  5
585
330
6B
100
AcDbEntity
  8
0
 62
     3
100
AcDbLine
 10
-333.2098723041382
 20
92.24057625776881
 30
0.0
 11
-333.2098723041382
 21
92.02901511776881
 31
0.0
  0
LINE
  5
586
330
6B
100
AcDbEntity
  8
0
 62
     3
100
AcDbLine
 10
-335.3537421341382
 20
88.29838464776878
 30
0.0
 11
-335.3537421341382
 21
88.08682349776878
 31
0.0
  0
LINE
  5
587
330
6B
100
AcDbEntity
  8
0
 62
     3
100
AcDbLine
 10
-331.7161083741382
 20
91.57280673776879
 30
0.0
 11
-331.5260594041382
 21
91.57280673776879
 31
0.0
  0
LINE
  5
588
330
6B
100
AcDbEntity
  8
0
 62
     3
100
AcDbLine
 10
-343.3592680341381
 20
88.29838464776878
 30
0.0
 11
-343.3592717241382
 21
88.0868037277688
 31
0.0
  0
LINE
  5
589
330
6B
100
AcDbEntity
  8
0
 62
     3
100
AcDbLine
 10
-345.2887835641383
 20
88.08684326776878
 30
0.0
 11
-343.3592717241382
 21
88.0868095977688
 31
0.0
  0
LINE
  5
58A
330
6B
100
AcDbEntity
  8
0
 62
     3
100
AcDbLine
 10
-349.5851654141383
 20
88.08682349776878
 30
0.0
 11
-348.0459000841382
 21
88.08682349776878
 31
0.0
  0
ARC
  5
58B
330
6B
100
AcDbEntity
  8
0
 62
     3
100
AcDbCircle
 10
-354.5671080941382
 20
90.21260650776879
 30
0.0
 40
14.71356563
100
AcDbArc
 50
353.8660061900003
 51
357.69403426
  0
LINE
  5
58C
330
6B
100
AcDbEntity
  8
0
 62
     3
100
AcDbLine
 10
-340.8505282341382
 20
89.6242388477688
 30
0.0
 11
-339.8654573441382
 21
89.62059397776878
 31
0.0
  0
LINE
  5
58E
330
6B
100
AcDbEntity
  8
0
 62
     3
100
AcDbLine
 10
-340.8465498141382
 20
90.6994535977688
 30
0.0
 11
-339.8614789341383
 21
90.69580871776878
 31
0.0
  0
ARC
  5
58F
330
6B
100
AcDbEntity
  8
0
 62
     3
100
AcDbCircle
 10
-354.5671080941382
 20
90.21260650776879
 30
0.0
 40
14.71356563
100
AcDbArc
 50
1.881965739999678
 51
5.709993810000386
  0
LINE
  5
590
330
6B
100
AcDbEntity
  8
0
 62
     3
100
AcDbLine
 10
-343.3591992341381
 20
92.24055648776877
 30
0.0
 11
-343.3592029241382
 21
92.02901511776881
 31
0.0
  0
LINE
  5
591
330
6B
100
AcDbEntity
  8
0
 62
     3
100
AcDbLine
 10
-345.2887110641384
 20
92.24059602776881
 30
0.0
 11
-343.3591992341381
 21
92.24056235776881
 31
0.0
  0
LINE
  5
592
330
6B
100
AcDbEntity
  8
0
 62
     3
100
AcDbLine
 10
-345.2887798741382
 20
88.29838464776878
 30
0.0
 11
-345.2887835641383
 21
88.08684326776878
 31
0.0
  0
LINE
  5
593
330
6B
100
AcDbEntity
  8
0
 62
     3
100
AcDbLine
 10
-345.2887110641384
 20
92.24059602776881
 30
0.0
 11
-345.2887147641383
 21
92.02901511776881
 31
0.0
  0
LINE
  5
594
330
6B
100
AcDbEntity
  8
0
 62
     3
100
AcDbLine
 10
-348.0459000841382
 20
88.29838464776878
 30
0.0
 11
-348.0459000841382
 21
88.08682349776878
 31
0.0
  0
LINE
  5
595
330
6B
100
AcDbEntity
  8
0
 62
     3
100
AcDbLine
 10
-348.4816479941382
 20
90.5227115977688
 30
0.0
 11
-346.9592179341382
 21
88.08682349776878
 31
0.0
  0
LINE
  5
596
330
6B
100
AcDbEntity
  8
0
 62
     3
100
AcDbLine
 10
-346.9592179341382
 20
88.08682349776878
 30
0.0
 11
-345.9397852141382
 21
88.08682349776878
 31
0.0
  0
LINE
  5
597
330
6B
100
AcDbEntity
  8
0
 62
     3
100
AcDbLine
 10
-345.5040373041384
 20
92.24057625776881
 30
0.0
 11
-345.5040373041384
 21
92.02901511776881
 31
0.0
  0
LINE
  5
598
330
6B
100
AcDbEntity
  8
0
 62
     3
100
AcDbLine
 10
-347.0433026341384
 20
92.24057625776881
 30
0.0
 11
-345.5040373041384
 21
92.24057625776881
 31
0.0
  0
LINE
  5
599
330
6B
100
AcDbEntity
  8
0
 62
     3
100
AcDbLine
 10
-347.0433026341384
 20
92.24057625776881
 30
0.0
 11
-347.0433026341384
 21
92.02901511776881
 31
0.0
  0
LINE
  5
59A
330
6B
100
AcDbEntity
  8
0
 62
     3
100
AcDbLine
 10
-346.6075547241382
 20
90.35920991776881
 30
0.0
 11
-347.8422013941381
 21
92.24057625776881
 31
0.0
  0
LINE
  5
59B
330
6B
100
AcDbEntity
  8
0
 62
     3
100
AcDbLine
 10
-349.5851654141383
 20
92.24057625776881
 30
0.0
 11
-347.8422013941381
 21
92.24057625776881
 31
0.0
  0
LINE
  5
59C
330
6B
100
AcDbEntity
  8
0
 62
     3
100
AcDbLine
 10
-339.6689510541382
 20
92.24047754776881
 30
0.0
 11
-337.7166885141381
 21
92.24047754776881
 31
0.0
  0
LINE
  5
59D
330
6B
100
AcDbEntity
  8
0
 62
     3
100
AcDbLine
 10
-339.6689510541382
 20
92.02901511776881
 30
0.0
 11
-339.6689510541382
 21
92.24047754776881
 31
0.0
  0
LINE
  5
59E
330
6B
100
AcDbEntity
  8
0
 62
     3
100
AcDbLine
 10
-339.6689510541382
 20
88.0867247877688
 30
0.0
 11
-339.6689510541382
 21
88.29838464776878
 31
0.0
  0
LINE
  5
59F
330
6B
100
AcDbEntity
  8
0
 62
     3
100
AcDbLine
 10
-339.6689510541382
 20
88.0867247877688
 30
0.0
 11
-337.7166885141381
 21
88.0867247877688
 31
0.0
  0
LINE
  5
5A0
330
6B
100
AcDbEntity
  8
0
 62
     3
100
AcDbLine
 10
-337.5129622241383
 20
88.29838464776878
 30
0.0
 11
-337.5129622241383
 21
88.0867247877688
 31
0.0
  0
LINE
  5
5A1
330
6B
100
AcDbEntity
  8
0
 62
     3
100
AcDbLine
 10
-337.7166885141381
 20
88.29838464776878
 30
0.0
 11
-337.7166885141381
 21
88.0867247877688
 31
0.0
  0
LINE
  5
5A2
330
6B
100
AcDbEntity
  8
0
 62
     3
100
AcDbLine
 10
-337.7166885141381
 20
92.02901511776881
 30
0.0
 11
-337.7166885141381
 21
92.24047754776881
 31
0.0
  0
LINE
  5
5A3
330
6B
100
AcDbEntity
  8
0
 62
     3
100
AcDbLine
 10
-337.5129622241383
 20
92.02901511776881
 30
0.0
 11
-337.5129622241383
 21
92.24047754776881
 31
0.0
  0
LINE
  5
5A4
330
6B
100
AcDbEntity
  8
0
 62
     3
100
AcDbLine
 10
-349.5851654141383
 20
88.29838464776878
 30
0.0
 11
-349.5851654141383
 21
88.08682349776878
 31
0.0
  0
LINE
  5
5A5
330
6B
100
AcDbEntity
  8
0
 62
     3
100
AcDbLine
 10
-349.5851654141383
 20
92.24057625776881
 30
0.0
 11
-349.5851654141383
 21
92.02901511776881
 31
0.0
  0
ARC
  5
5A6
330
6B
100
AcDbEntity
  8
0
 62
     3
100
AcDbCircle
 10
-331.0155717441381
 20
90.59944778776879
 30
0.0
 40
1.641128469999999
100
AcDbArc
 50
17.3087489800011
 51
23.76507096000024
  0
ARC
  5
5A7
330
6B
100
AcDbEntity
  8
0
 62
     3
100
AcDbCircle
 10
-332.4138451441382
 20
90.16369987776878
 30
0.0
 40
3.105725599999998
100
AcDbArc
 50
342.6912510199989
 51
17.3085664399987
  0
ARC
  5
5A8
330
6B
100
AcDbEntity
  8
0
 62
     3
100
AcDbCircle
 10
-331.0155717441381
 20
89.7279519777688
 30
0.0
 40
1.641128469999999
100
AcDbArc
 50
336.2349290399998
 51
342.6912510199989
  0
ARC
  5
5A9
330
6B
100
AcDbEntity
  8
0
 62
     3
100
AcDbCircle
 10
-331.2255717441382
 20
90.59944778776879
 30
0.0
 40
1.641128469999999
100
AcDbArc
 50
17.3087489800011
 51
90.0
  0
ARC
  5
5AA
330
6B
100
AcDbEntity
  8
0
 62
     3
100
AcDbCircle
 10
-332.6238451441383
 20
90.16369987776878
 30
0.0
 40
3.105725599999998
100
AcDbArc
 50
342.6912510199989
 51
17.3085664399987
  0
ARC
  5
5AB
330
6B
100
AcDbEntity
  8
0
 62
     3
100
AcDbCircle
 10
-331.2255717441382
 20
89.7279519777688
 30
0.0
 40
1.641128469999999
100
AcDbArc
 50
270.0
 51
342.6912510199989
  0
ARC
  5
5AC
330
6B
100
AcDbEntity
  8
0
 62
     3
100
AcDbCircle
 10
-341.3495121141383
 20
90.16369987776878
 30
0.0
 40
2.076876379999998
100
AcDbArc
 50
46.75287961000123
 51
89.74999828999893
  0
ARC
  5
5AD
330
6B
100
AcDbEntity
  8
0
 62
     3
100
AcDbCircle
 10
-341.3495121141383
 20
90.16369987776878
 30
0.0
 40
2.076876379999998
100
AcDbArc
 50
273.9763331500004
 51
312.8231203899985
  0
ARC
  5
5AE
330
6B
100
AcDbEntity
  8
0
 62
     3
100
AcDbCircle
 10
-329.9077041741382
 20
90.1316383477688
 30
0.0
 40
2.755888999999998
100
AcDbArc
 50
0.6665840599998134
 51
23.90392827000101
  0
ARC
  5
5AF
330
6B
100
AcDbEntity
  8
0
 62
     3
100
AcDbCircle
 10
-325.9921418941382
 20
90.1316383477688
 30
0.0
 40
2.755888999999998
100
AcDbArc
 50
156.096071729999
 51
179.3334159400002
  0
ARC
  5
5B0
330
6B
100
AcDbEntity
  8
0
 62
     3
100
AcDbCircle
 10
-329.9077041741382
 20
90.1957614077688
 30
0.0
 40
2.755888999999998
100
AcDbArc
 50
336.0960717299982
 51
359.3334159400002
  0
ARC
  5
5B1
330
6B
100
AcDbEntity
  8
0
 62
     3
100
AcDbCircle
 10
-325.9921418941382
 20
90.1957614077688
 30
0.0
 40
2.755888999999998
100
AcDbArc
 50
180.6665840599998
 51
203.903928270001
  0
LINE
  5
5B2
330
6B
100
AcDbEntity
  8
0
 62
     3
100
AcDbLine
 10
-355.4153818741383
 20
90.19568739776881
 30
0.0
 11
-476.1718266941382
 21
90.19568739776881
 31
0.0
  0
LINE
  5
5B3
330
6B
100
AcDbEntity
  8
0
 62
     3
100
AcDbLine
 10
-199.1718266941383
 20
90.19568739776881
 30
0.0
 11
-320.6102886341382
 21
90.19568739776881
 31
0.0
  0
LINE
  5
5B8
330
6B
100
AcDbEntity
  8
0
 62
     3
100
AcDbLine
 10
-251.1718266941383
 20
-89.80431260223118
 30
0.0
 11
-251.1718266941383
 21
-43.80431260223118
 31
0.0
  0
LINE
  5
5B9
330
6B
100
AcDbEntity
  8
0
 62
     3
100
AcDbLine
 10
-238.1718266941383
 20
-79.80431260223119
 30
0.0
 11
-238.1718266941383
 21
-51.80431260223119
 31
0.0
  0
LINE
  5
5BA
330
6B
100
AcDbEntity
  8
0
 62
     3
100
AcDbLine
 10
-278.1718266941383
 20
-79.80431260223119
 30
0.0
 11
-278.1718266941383
 21
-65.80431260223119
 31
0.0
  0
LINE
  5
5BB
330
6B
100
AcDbEntity
  8
0
 62
     3
100
AcDbLine
 10
-268.1718266941383
 20
-65.80431260223119
 30
0.0
 11
-268.1718266941383
 21
-89.80431260223118
 31
0.0
  0
LINE
  5
5BC
330
6B
100
AcDbEntity
  8
0
 62
     3
100
AcDbLine
 10
-297.1718266941383
 20
-49.8043126022312
 30
0.0
 11
-297.1718266941383
 21
-72.80431260223119
 31
0.0
  0
LINE
  5
5BD
330
6B
100
AcDbEntity
  8
0
 62
     3
100
AcDbLine
 10
-238.1718266941383
 20
-51.80431260223119
 30
0.0
 11
-238.1718266941383
 21
-49.80431260223117
 31
0.0
  0
LINE
  5
5BE
330
6B
100
AcDbEntity
  8
0
 62
     3
100
AcDbLine
 10
-225.1718266941383
 20
-72.80431260223119
 30
0.0
 11
-225.1718266941383
 21
-43.80431260223118
 31
0.0
  0
LINE
  5
5BF
330
6B
100
AcDbEntity
  8
0
 62
     3
100
AcDbLine
 10
-199.1718266941383
 20
-49.80431260223117
 30
0.0
 11
-310.417261334138
 21
-49.80431260223117
 31
0.0
  0
LINE
  5
5C0
330
6B
100
AcDbEntity
  8
0
 62
     3
100
AcDbLine
 10
-199.1718266941383
 20
-58.80431260223119
 30
0.0
 11
-310.4172613341383
 21
-58.80431260223119
 31
0.0
  0
LINE
  5
5C1
330
6B
100
AcDbEntity
  8
0
 62
     3
100
AcDbLine
 10
-199.1718266941383
 20
-72.80431260223119
 30
0.0
 11
-310.4172613341383
 21
-72.80431260223119
 31
0.0
  0
LINE
  5
5C2
330
6B
100
AcDbEntity
  8
0
 62
     3
100
AcDbLine
 10
-199.1718266941383
 20
-79.80431260223119
 30
0.0
 11
-310.4752691941384
 21
-79.80431260223119
 31
0.0
  0
LINE
  5
5C3
330
6B
100
AcDbEntity
  8
0
 62
     3
100
AcDbLine
 10
-212.1718266941383
 20
-72.80431260223119
 30
0.0
 11
-212.1718266941383
 21
-49.80431260223117
 31
0.0
  0
LINE
  5
5C4
330
6B
100
AcDbEntity
  8
0
 62
     3
100
AcDbLine
 10
-310.4172613341383
 20
-49.80431260223117
 30
0.0
 11
-310.4172613341383
 21
-89.80431260223118
 31
0.0
  0
LINE
  5
5C5
330
6B
100
AcDbEntity
  8
0
 62
     3
100
AcDbLine
 10
-251.1718266941383
 20
-65.80431260223119
 30
0.0
 11
-310.4172613341383
 21
-65.80431260223121
 31
0.0
  0
LINE
  5
5C6
330
6B
100
AcDbEntity
  8
0
 62
     3
100
AcDbLine
 10
-267.8935017641383
 20
-84.97145134223121
 30
0.0
 11
-251.1718266941383
 21
-84.97145134223121
 31
0.0
  0
LINE
  5
5C7
330
6B
100
AcDbEntity
  8
0
 62
     3
100
AcDbLine
 10
-264.1718266941383
 20
-58.80431260223119
 30
0.0
 11
-256.1718266941383
 21
-58.80431260223119
 31
0.0
  0
TEXT
  5
5C8
330
6B
100
AcDbEntity
  8
0
 62
     3
100
AcDbText
 10
-267.0075012808226
 20
-70.73121574886584
 30
0.0
 40
2.5
  1
-
  7
高2.5
100
AcDbText
  0
TEXT
  5
5C9
330
6B
100
AcDbEntity
  8
0
 62
     3
100
AcDbText
 10
-295.9754579988861
 20
-70.50649819724728
 30
0.0
 40
2.5
  1
PA6
  7
高2.5
100
AcDbText
  0
TEXT
  5
5CA
330
6B
100
AcDbEntity
  8
0
 62
     3
100
AcDbText
 10
-295.7105502441885
 20
-57.4920630784733
 30
0.0
 40
4.5
  1
ロックフック
  7
高4.5
100
AcDbText
1001
ACAD
1000
ACAD_MTEXT_DEFINED_HEIGHT_BEGIN
1070
    46
1040
0.0
1000
ACAD_MTEXT_DEFINED_HEIGHT_END
  0
TEXT
  5
5CB
330
6B
100
AcDbEntity
  8
0
 62
     3
100
AcDbText
 10
-209.1062376006644
 20
-53.2906205035276
 30
0.0
 40
2.0
  1
DEF
  7
高2
100
AcDbText
  0
TEXT
  5
5CC
330
6B
100
AcDbEntity
  8
0
 62
     3
100
AcDbText
 10
-223.0453359543725
 20
-53.29062050352767
 30
0.0
 40
2.0
  1
DESN
  7
高2
100
AcDbText
  0
TEXT
  5
5CD
330
6B
100
AcDbEntity
  8
0
 62
     3
100
AcDbText
 10
-249.2997028943727
 20
-53.2906205035276
 30
0.0
 40
2.0
  1
APPD
  7
高2
100
AcDbText
  0
TEXT
  5
5CE
330
6B
100
AcDbEntity
  8
0
 62
     3
100
AcDbText
 10
-236.1869667941383
 20
-53.29062050352757
 30
0.0
 40
2.0
  1
CHCK
  7
高2
100
AcDbText
  0
TEXT
  5
5CF
330
6B
100
AcDbEntity
  8
0
 62
     3
100
AcDbText
 10
-277.2446610549855
 20
-75.63591377900047
 30
0.0
 40
2.0
  1
SCALE
 41
0.8
  7
高2
100
AcDbText
  0
TEXT
  5
5D0
330
6B
100
AcDbEntity
  8
0
 62
     3
100
AcDbText
 10
-308.7326826310922
 20
-75.63591377900046
 30
0.0
 40
2.0
  1
3AD　ANGLE
 41
1.5
  7
高2
100
AcDbText
  0
TEXT
  5
5D1
330
6B
100
AcDbEntity
  8
0
 62
     3
100
AcDbText
 10
-277.9752553641368
 20
-68.88437571004335
 30
0.0
 40
2.0
  1
REMARKS
 41
0.7
  7
高2
100
AcDbText
  0
TEXT
  5
5D2
330
6B
100
AcDbEntity
  8
0
 62
     3
100
AcDbText
 10
-308.9495909841383
 20
-68.80431260223119
 30
0.0
 40
2.0
  1
MATERIAL
 41
0.7
  7
高2
100
AcDbText
  0
TEXT
  5
5D3
330
6B
100
AcDbEntity
  8
0
 62
     3
100
AcDbText
 10
-308.3731037813842
 20
-61.8043126022312
 30
0.0
 40
2.0
  1
MODEL
  7
高2
100
AcDbText
  0
TEXT
  5
5D4
330
6B
100
AcDbEntity
  8
0
 62
     3
100
AcDbText
 10
-308.736182900053
 20
-53.09729125163218
 30
0.0
 40
2.0
  1
CONPONENTS
 41
0.5
  7
高2
100
AcDbText
  0
TEXT
  5
5D5
330
6B
100
AcDbEntity
  8
0
 62
     3
100
AcDbText
 10
-296.0290674288862
 20
-64.71683147441925
 30
0.0
 40
4.5
  1
BH-SK
  7
高4.5
100
AcDbText
  0
TEXT
  5
5D6
330
6B
100
AcDbEntity
  8
0
 62
     3
100
AcDbText
 10
-248.1067809635198
 20
-87.7658512068656
 30
0.0
 40
6.299999999999998
  1
BH-SK
  7
高6.3
100
AcDbText
1001
ACAD
1000
ACAD_MTEXT_DEFINED_HEIGHT_BEGIN
1070
    46
1040
0.0
1000
ACAD_MTEXT_DEFINED_HEIGHT_END
  0
TEXT
  5
5D7
330
6B
100
AcDbEntity
  8
0
 62
     3
100
AcDbText
 10
-234.6083169438088
 20
-78.70342344399819
 30
0.0
 40
3.2
  1
2007.1.31
  7
高3.2
100
AcDbText
1001
ACAD
1000
ACAD_MTEXT_DEFINED_HEIGHT_BEGIN
1070
    46
1040
0.0
1000
ACAD_MTEXT_DEFINED_HEIGHT_END
  0
TEXT
  5
5D8
330
6B
100
AcDbEntity
  8
0
 62
     3
100
AcDbText
 10
-264.384228799492
 20
-78.70339559966331
 30
0.0
 40
3.2
  1
1/1
  7
高3.2
100
AcDbText
  0
TEXT
  5
5D9
330
6B
100
AcDbEntity
  8
0
 62
     3
100
AcDbText
 10
-267.3068998241382
 20
-88.98743442909523
 30
0.0
 40
3.2
  1
ZK-A4X
 41
0.8
  7
高3.2
100
AcDbText
  0
TEXT
  5
5DA
330
6B
100
AcDbEntity
  8
0
 62
     3
100
AcDbText
 10
-309.5865602941384
 20
-83.27969218004337
 30
0.0
 40
2.0
  1
NICHIDO IND.CO.LTD
 41
1.3
  7
高2
100
AcDbText
  0
TEXT
  5
5DB
330
6B
100
AcDbEntity
  8
0
 62
     3
100
AcDbText
 10
-308.405037029181
 20
-57.66378439434626
 30
0.0
 40
3.2
  1
品 名
  7
高3.2
100
AcDbText
1001
ACAD
1000
ACAD_MTEXT_DEFINED_HEIGHT_BEGIN
1070
    46
1040
0.0
1000
ACAD_MTEXT_DEFINED_HEIGHT_END
  0
TEXT
  5
5DC
330
6B
100
AcDbEntity
  8
0
 62
     3
100
AcDbText
 10
-308.405037029181
 20
-65.30431260223121
 30
0.0
 40
3.2
  1
型 式
  7
高3.2
100
AcDbText
1001
ACAD
1000
ACAD_MTEXT_DEFINED_HEIGHT_BEGIN
1070
    46
1040
3.064735913775954
1000
ACAD_MTEXT_DEFINED_HEIGHT_END
  0
TEXT
  5
5DD
330
6B
100
AcDbEntity
  8
0
 62
     3
100
AcDbText
 10
-308.405037029181
 20
-72.30431260223119
 30
0.0
 40
3.2
  1
材 質
  7
高3.2
100
AcDbText
1001
ACAD
1000
ACAD_MTEXT_DEFINED_HEIGHT_BEGIN
1070
    46
1040
0.0
1000
ACAD_MTEXT_DEFINED_HEIGHT_END
  0
TEXT
  5
5DE
330
6B
100
AcDbEntity
  8
0
 62
     3
100
AcDbText
 10
-308.7100719791812
 20
-79.33687260998495
 30
0.0
 40
3.2
  1
第 三 角 法
  7
高3.2
100
AcDbText
1001
ACAD
1000
ACAD_MTEXT_DEFINED_HEIGHT_BEGIN
1070
    46
1040
0.0
1000
ACAD_MTEXT_DEFINED_HEIGHT_END
  0
TEXT
  5
5DF
330
6B
100
AcDbEntity
  8
0
 62
     3
100
AcDbText
 10
-310.3035393716522
 20
-88.66378439434624
 30
0.0
 40
3.2
  1
日動工業株式会社
 41
1.199999999999999
  7
高3.2
100
AcDbText
1001
ACAD
1000
ACAD_MTEXT_DEFINED_HEIGHT_BEGIN
1070
    46
1040
0.0
1000
ACAD_MTEXT_DEFINED_HEIGHT_END
  0
TEXT
  5
5E0
330
6B
100
AcDbEntity
  8
0
 62
     3
100
AcDbText
 10
-276.6679151721738
 20
-72.41973406906365
 30
0.0
 40
3.2
  1
備考
  7
高3.2
100
AcDbText
1001
ACAD
1000
ACAD_MTEXT_DEFINED_HEIGHT_BEGIN
1070
    46
1040
0.0
1000
ACAD_MTEXT_DEFINED_HEIGHT_END
  0
TEXT
  5
5E1
330
6B
100
AcDbEntity
  8
0
 62
     3
100
AcDbText
 10
-267.0188577251382
 20
-83.65808257666092
 30
0.0
 40
2.5
  1
出図コード
  7
高2.5
100
AcDbText
1001
ACAD
1000
ACAD_MTEXT_DEFINED_HEIGHT_BEGIN
1070
    46
1040
0.0
1000
ACAD_MTEXT_DEFINED_HEIGHT_END
  0
TEXT
  5
5E2
330
6B
100
AcDbEntity
  8
0
 62
     3
100
AcDbText
 10
-276.8266812902613
 20
-79.35107769181826
 30
0.0
 40
3.2
  1
尺度
  7
高3.2
100
AcDbText
1001
ACAD
1000
ACAD_MTEXT_DEFINED_HEIGHT_BEGIN
1070
    46
1040
0.0
1000
ACAD_MTEXT_DEFINED_HEIGHT_END
  0
TEXT
  5
5E3
330
6B
100
AcDbEntity
  8
0
 62
     3
100
AcDbText
 10
-249.6804198084825
 20
-78.21959924370078
 30
0.0
 40
3.2
  1
作成日
  7
高3.2
100
AcDbText
1001
ACAD
1000
ACAD_MTEXT_DEFINED_HEIGHT_BEGIN
1070
    46
1040
0.0
1000
ACAD_MTEXT_DEFINED_HEIGHT_END
  0
TEXT
  5
5E4
330
6B
100
AcDbEntity
  8
0
 62
     3
100
AcDbText
 10
-249.7859458016184
 20
-57.66378439434626
 30
0.0
 40
3.2
  1
承 認
  7
高3.2
100
AcDbText
1001
ACAD
1000
ACAD_MTEXT_DEFINED_HEIGHT_BEGIN
1070
    46
1040
0.0
1000
ACAD_MTEXT_DEFINED_HEIGHT_END
  0
TEXT
  5
5E5
330
6B
100
AcDbEntity
  8
0
 62
     3
100
AcDbText
 10
-236.7859458016186
 20
-57.66378439434626
 30
0.0
 40
3.2
  1
検 図
  7
高3.2
100
AcDbText
1001
ACAD
1000
ACAD_MTEXT_DEFINED_HEIGHT_BEGIN
1070
    46
1040
0.0
1000
ACAD_MTEXT_DEFINED_HEIGHT_END
  0
TEXT
  5
5E6
330
6B
100
AcDbEntity
  8
0
 62
     3
100
AcDbText
 10
-223.7859458016186
 20
-57.66378439434626
 30
0.0
 40
3.2
  1
設 計
  7
高3.2
100
AcDbText
1001
ACAD
1000
ACAD_MTEXT_DEFINED_HEIGHT_BEGIN
1070
    46
1040
0.0
1000
ACAD_MTEXT_DEFINED_HEIGHT_END
  0
TEXT
  5
5E7
330
6B
100
AcDbEntity
  8
0
 62
     3
100
AcDbText
 10
-210.4853092816185
 20
-57.66378439434626
 30
0.0
 40
3.2
  1
製 図
  7
高3.2
100
AcDbText
1001
ACAD
1000
ACAD_MTEXT_DEFINED_HEIGHT_BEGIN
1070
    46
1040
0.0
1000
ACAD_MTEXT_DEFINED_HEIGHT_END
  0
TEXT
  5
5E8
330
6B
100
AcDbEntity
  8
0
 62
     3
100
AcDbText
 10
-211.6718266941383
 20
80.69568739776881
 30
0.0
 40
3.2
  1
担　当
  7
高3.2
100
AcDbText
  0
TEXT
  5
5E9
330
6B
100
AcDbEntity
  8
0
 62
     3
100
AcDbText
 10
-255.6718266941383
 20
80.69568739776881
 30
0.0
 40
3.2
  1
変更・追記内容
  7
高3.2
100
AcDbText
  0
TEXT
  5
5EA
330
6B
100
AcDbEntity
  8
0
 62
     3
100
AcDbText
 10
-280.5583116937991
 20
76.02514888786052
 30
0.0
 40
2.0
  1
1
  7
高2
100
AcDbText
  0
TEXT
  5
5EB
330
6B
100
AcDbEntity
  8
0
 62
     3
100
AcDbText
 10
-280.8668231705564
 20
70.85533217558761
 30
0.0
 40
2.0
  1
2
  7
高2
100
AcDbText
  0
TEXT
  5
5EC
330
6B
100
AcDbEntity
  8
0
 62
     3
100
AcDbText
 10
-273.6718266941383
 20
80.69568739776881
 30
0.0
 40
3.2
  1
日　付
  7
高3.2
100
AcDbText
  0
TEXT
  5
5ED
330
6B
100
AcDbEntity
  8
0
 62
     3
100
AcDbText
 10
-273.6718266941383
 20
85.69568739776881
 30
0.0
 40
3.2
  1
図　　　　面　　　　略　　　　歴
  7
高3.2
100
AcDbText
  0
TEXT
  5
5EE
330
6B
100
AcDbEntity
  8
0
 62
     3
100
AcDbText
 10
-283.6718266941383
 20
80.69568739776881
 30
0.0
 40
3.2
  1
記号
  7
高3.2
100
AcDbText
  0
LINE
  5
5EF
330
6B
100
AcDbEntity
  8
0
 62
     7
100
AcDbLine
 10
-280.1718266941383
 20
73.98658339776891
 30
0.0
 11
-282.0718266941383
 21
70.6956873977688
 31
0.0
  0
LINE
  5
5F0
330
6B
100
AcDbEntity
  8
0
 62
     7
100
AcDbLine
 10
-280.1718266941383
 20
73.98658339776891
 30
0.0
 11
-278.2718266941383
 21
70.6956873977688
 31
0.0
  0
LINE
  5
5F1
330
6B
100
AcDbEntity
  8
0
 62
     7
100
AcDbLine
 10
-282.0718266941383
 20
70.6956873977688
 30
0.0
 11
-278.2718266941383
 21
70.6956873977688
 31
0.0
  0
LINE
  5
5F2
330
6B
100
AcDbEntity
  8
0
 62
     7
100
AcDbLine
 10
-280.1718266941383
 20
78.98658439776889
 30
0.0
 11
-282.0718266941383
 21
75.6956873977688
 31
0.0
  0
LINE
  5
5F3
330
6B
100
AcDbEntity
  8
0
 62
     7
100
AcDbLine
 10
-280.1718266941383
 20
78.98658439776889
 30
0.0
 11
-278.2718266941383
 21
75.6956873977688
 31
0.0
  0
LINE
  5
5F4
330
6B
100
AcDbEntity
  8
0
 62
     7
100
AcDbLine
 10
-282.0718266941383
 20
75.6956873977688
 30
0.0
 11
-278.2718266941383
 21
75.6956873977688
 31
0.0
  0
LINE
  5
5F5
330
6B
100
AcDbEntity
  8
0
 62
     3
100
AcDbLine
 10
-285.1718266941383
 20
85.19568739776881
 30
0.0
 11
-199.1718266941383
 21
85.19568739776881
 31
0.0
  0
LINE
  5
5F6
330
6B
100
AcDbEntity
  8
0
 62
     3
100
AcDbLine
 10
-285.1718266941383
 20
80.19568739776881
 30
0.0
 11
-199.1718266941383
 21
80.19568739776881
 31
0.0
  0
LINE
  5
5F7
330
6B
100
AcDbEntity
  8
0
 62
     7
100
AcDbLine
 10
-285.1718266941383
 20
75.19568739776881
 30
0.0
 11
-199.1718266941383
 21
75.19568739776881
 31
0.0
  0
LINE
  5
5F8
330
6B
100
AcDbEntity
  8
0
 62
     3
100
AcDbLine
 10
-285.1718266941383
 20
70.19568739776881
 30
0.0
 11
-199.1718266941383
 21
70.19568739776881
 31
0.0
  0
LINE
  5
5F9
330
6B
100
AcDbEntity
  8
0
 62
     7
100
AcDbLine
 10
-213.1718266941384
 20
70.19568739776881
 30
0.0
 11
-213.1718266941383
 21
85.19568739776881
 31
0.0
  0
LINE
  5
5FA
330
6B
100
AcDbEntity
  8
0
 62
     7
100
AcDbLine
 10
-257.1718266941383
 20
70.19568739776881
 30
0.0
 11
-257.1718266941383
 21
85.19568739776881
 31
0.0
  0
LINE
  5
5FB
330
6B
100
AcDbEntity
  8
0
 62
     7
100
AcDbLine
 10
-275.1718266941383
 20
70.19568739776881
 30
0.0
 11
-275.1718266941383
 21
85.19568739776881
 31
0.0
  0
LINE
  5
5FC
330
6B
100
AcDbEntity
  8
0
 62
     3
100
AcDbLine
 10
-285.1718266941383
 20
70.19568739776881
 30
0.0
 11
-285.1718266941383
 21
90.19568739776881
 31
0.0
  0
LINE
  5
65D
330
6B
100
AcDbEntity
  8
0
 62
     3
100
AcDbLine
 10
-199.2718626941383
 20
-43.80431260223118
 30
0.0
 11
-251.1718266941383
 21
-43.80431260223118
 31
0.0
  0
TEXT
  5
65E
330
6B
100
AcDbEntity
  8
0
 62
     3
100
AcDbText
 10
-249.8217126941383
 20
-49.24822660223121
 30
0.0
 40
4.5
  1
コード
  7
高4.5
100
AcDbText
  0
TEXT
  5
65F
330
6B
100
AcDbEntity
  8
0
 62
     3
100
AcDbText
 10
-223.5784356941383
 20
-49.30595560223118
 30
0.0
 40
4.5
  1
29637
  7
高4.5
100
AcDbText
  0
LINE
  5
751
330
6B
100
AcDbEntity
  8
0
100
AcDbLine
 10
-426.5192366941382
 20
52.34905539776879
 30
0.0
 11
-426.5192366941382
 21
69.16911339776881
 31
0.0
  0
LINE
  5
752
330
6B
100
AcDbEntity
  8
0
100
AcDbLine
 10
-416.5192366941381
 20
52.34905539776879
 30
0.0
 11
-416.5192366941381
 21
69.16911339776881
 31
0.0
  0
LINE
  5
753
330
6B
100
AcDbEntity
  8
0
100
AcDbLine
 10
-424.0192366941381
 20
67.91911339776881
 30
0.0
 11
-419.0192366941381
 21
67.91911339776881
 31
0.0
  0
LINE
  5
757
330
6B
100
AcDbEntity
  8
0
100
AcDbLine
 10
-351.9688626941382
 20
28.54724439776881
 30
0.0
 11
-351.9688626941382
 21
69.16911339776881
 31
0.0
  0
LINE
  5
758
330
6B
100
AcDbEntity
  8
0
100
AcDbLine
 10
-297.9507516941382
 20
35.31932139776881
 30
0.0
 11
-297.9507516941382
 21
69.16911339776881
 31
0.0
  0
LINE
  5
759
330
6B
100
AcDbEntity
  8
0
100
AcDbLine
 10
-349.4688626941382
 20
67.91911339776881
 30
0.0
 11
-300.4507516941382
 21
67.91911339776881
 31
0.0
  0
LINE
  5
75D
330
6B
100
AcDbEntity
  8
0
100
AcDbLine
 10
-421.7692366941383
 20
-44.60925760223118
 30
0.0
 11
-437.4742196941381
 21
-44.60925760223118
 31
0.0
  0
LINE
  5
75E
330
6B
100
AcDbEntity
  8
0
100
AcDbLine
 10
-421.7692366941383
 20
-29.60925760223119
 30
0.0
 11
-437.4742196941381
 21
-29.60925760223119
 31
0.0
  0
LINE
  5
75F
330
6B
100
AcDbEntity
  8
0
100
AcDbLine
 10
-436.2242196941381
 20
-42.10925760223118
 30
0.0
 11
-436.2242196941381
 21
-32.10925760223118
 31
0.0
  0
LINE
  5
763
330
6B
100
AcDbEntity
  8
0
100
AcDbLine
 10
-364.8009696941382
 20
-43.14356060223119
 30
0.0
 11
-372.4181776941384
 21
-43.14356060223118
 31
0.0
  0
LINE
  5
764
330
6B
100
AcDbEntity
  8
0
100
AcDbLine
 10
-364.8009696941382
 20
-31.1435606022312
 30
0.0
 11
-372.4181776941384
 21
-31.1435606022312
 31
0.0
  0
LINE
  5
765
330
6B
100
AcDbEntity
  8
0
100
AcDbLine
 10
-371.1681776941384
 20
-40.64356060223118
 30
0.0
 11
-371.1681776941384
 21
-33.64356060223119
 31
0.0
  0
LINE
  5
769
330
6B
100
AcDbEntity
  8
0
100
AcDbLine
 10
-417.0519346941381
 20
-39.70925760223119
 30
0.0
 11
-405.6167776941381
 21
-39.70925760223119
 31
0.0
  0
LINE
  5
76A
330
6B
100
AcDbEntity
  8
0
100
AcDbLine
 10
-417.0519346941381
 20
-34.5092576022312
 30
0.0
 11
-405.6167776941381
 21
-34.5092576022312
 31
0.0
  0
LINE
  5
76B
330
6B
100
AcDbEntity
  8
0
100
AcDbLine
 10
-406.8667776941381
 20
-42.20925760223119
 30
0.0
 11
-406.8667776941381
 21
-44.70925760223119
 31
0.0
  0
LINE
  5
76C
330
6B
100
AcDbEntity
  8
0
100
AcDbLine
 10
-406.8667776941381
 20
-32.0092576022312
 30
0.0
 11
-406.8667776941381
 21
-26.2592576022312
 31
0.0
  0
LINE
  5
76D
330
6B
100
AcDbEntity
  8
0
100
AcDbLine
 10
-406.8667776941381
 20
-39.70925760223119
 30
0.0
 11
-406.8667776941381
 21
-34.5092576022312
 31
0.0
  0
LINE
  5
771
330
6B
100
AcDbEntity
  8
0
100
AcDbLine
 10
-318.6007516941383
 20
-11.36055160223119
 30
0.0
 11
-285.0336966941383
 21
-11.3605516022312
 31
0.0
  0
LINE
  5
772
330
6B
100
AcDbEntity
  8
0
100
AcDbLine
 10
-321.7007516941383
 20
59.06932139776881
 30
0.0
 11
-285.0336966941383
 21
59.06932139776881
 31
0.0
  0
LINE
  5
773
330
6B
100
AcDbEntity
  8
0
100
AcDbLine
 10
-286.2836966941383
 20
-8.860551602231199
 30
0.0
 11
-286.2836966941383
 21
56.56932139776881
 31
0.0
  0
LINE
  5
777
330
6B
100
AcDbEntity
  8
0
100
AcDbLine
 10
-317.7007516941383
 20
-11.36055160223119
 30
0.0
 11
-293.1582506941382
 21
-11.36055160223119
 31
0.0
  0
LINE
  5
778
330
6B
100
AcDbEntity
  8
0
100
AcDbLine
 10
-316.2007516941382
 20
1.639448397768806
 30
0.0
 11
-293.1582506941382
 21
1.6394483977688
 31
0.0
  0
LINE
  5
779
330
6B
100
AcDbEntity
  8
0
100
AcDbLine
 10
-294.4082506941382
 20
-8.860551602231197
 30
0.0
 11
-294.4082506941382
 21
-0.8605516022311993
 31
0.0
  0
LINE
  5
77D
330
6B
100
AcDbEntity
  8
0
100
AcDbLine
 10
-332.4014513609065
 20
41.98142047432942
 30
0.0
 11
-311.5000510273698
 21
28.15722232120815
 31
0.0
  0
LINE
  5
781
330
6B
100
AcDbEntity
  8
0
 62
     3
100
AcDbLine
 10
-340.8465498141382
 20
90.6994535977688
 30
0.0
 11
-340.8651773441383
 21
90.81872135776881
 31
0.0
  0
LINE
  5
782
330
6B
100
AcDbEntity
  8
0
 62
     3
100
AcDbLine
 10
-340.8651773441383
 20
90.81872135776881
 30
0.0
 11
-340.8875485241382
 21
90.93292613776879
 31
0.0
  0
LINE
  5
783
330
6B
100
AcDbEntity
  8
0
 62
     3
100
AcDbLine
 10
-340.8875485241382
 20
90.93292613776879
 30
0.0
 11
-340.9134904541383
 21
91.0411851977688
 31
0.0
  0
LINE
  5
784
330
6B
100
AcDbEntity
  8
0
 62
     3
100
AcDbLine
 10
-340.9134904541383
 20
91.0411851977688
 30
0.0
 11
-340.9428025941382
 21
91.14266174776879
 31
0.0
  0
LINE
  5
785
330
6B
100
AcDbEntity
  8
0
 62
     3
100
AcDbLine
 10
-340.9428025941382
 20
91.14266174776879
 30
0.0
 11
-340.9752584041382
 21
91.23657142776878
 31
0.0
  0
LINE
  5
786
330
6B
100
AcDbEntity
  8
0
 62
     3
100
AcDbLine
 10
-340.9752584041382
 20
91.23657142776878
 30
0.0
 11
-341.0106069941381
 21
91.3221883677688
 31
0.0
  0
LINE
  5
787
330
6B
100
AcDbEntity
  8
0
 62
     3
100
AcDbLine
 10
-341.0106069941381
 20
91.3221883677688
 30
0.0
 11
-341.0485751441381
 21
91.39885078776881
 31
0.0
  0
LINE
  5
788
330
6B
100
AcDbEntity
  8
0
 62
     3
100
AcDbLine
 10
-341.0485751441381
 20
91.39885078776881
 30
0.0
 11
-341.0888693941382
 21
91.46596611776876
 31
0.0
  0
LINE
  5
789
330
6B
100
AcDbEntity
  8
0
 62
     3
100
AcDbLine
 10
-341.0888693941382
 20
91.46596611776876
 30
0.0
 11
-341.1311782641381
 21
91.5230156077688
 31
0.0
  0
LINE
  5
78A
330
6B
100
AcDbEntity
  8
0
 62
     3
100
AcDbLine
 10
-341.1311782641381
 20
91.5230156077688
 30
0.0
 11
-341.1751747541382
 21
91.56955828776878
 31
0.0
  0
LINE
  5
78B
330
6B
100
AcDbEntity
  8
0
 62
     3
100
AcDbLine
 10
-341.1751747541382
 20
91.56955828776878
 30
0.0
 11
-341.2205187741382
 21
91.60523439776879
 31
0.0
  0
LINE
  5
78C
330
6B
100
AcDbEntity
  8
0
 62
     3
100
AcDbLine
 10
-341.2205187741382
 20
91.60523439776879
 30
0.0
 11
-341.2668598441381
 21
91.62976819776879
 31
0.0
  0
LINE
  5
78D
330
6B
100
AcDbEntity
  8
0
 62
     3
100
AcDbLine
 10
-341.2668598441381
 20
91.62976819776879
 30
0.0
 11
-341.3138397841382
 21
91.64297003776878
 31
0.0
  0
LINE
  5
78E
330
6B
100
AcDbEntity
  8
0
 62
     3
100
AcDbLine
 10
-341.3138397841382
 20
91.64297003776878
 30
0.0
 11
-341.3610954441382
 21
91.64473787776881
 31
0.0
  0
LINE
  5
78F
330
6B
100
AcDbEntity
  8
0
 62
     3
100
AcDbLine
 10
-341.3610954441382
 20
91.64473787776881
 30
0.0
 11
-341.4082615741382
 21
91.6350580677688
 31
0.0
  0
LINE
  5
790
330
6B
100
AcDbEntity
  8
0
 62
     3
100
AcDbLine
 10
-341.4082615741382
 20
91.6350580677688
 30
0.0
 11
-341.4549736041382
 21
91.61400540776879
 31
0.0
  0
LINE
  5
791
330
6B
100
AcDbEntity
  8
0
 62
     3
100
AcDbLine
 10
-341.4549736041382
 20
91.61400540776879
 30
0.0
 11
-341.5008704641382
 21
91.5817426377688
 31
0.0
  0
LINE
  5
792
330
6B
100
AcDbEntity
  8
0
 62
     3
100
AcDbLine
 10
-341.5008704641382
 20
91.5817426377688
 30
0.0
 11
-341.5455974041382
 21
91.53851912776881
 31
0.0
  0
LINE
  5
793
330
6B
100
AcDbEntity
  8
0
 62
     3
100
AcDbLine
 10
-341.5455974041382
 20
91.53851912776881
 30
0.0
 11
-341.5888087141383
 21
91.48466896776879
 31
0.0
  0
LINE
  5
794
330
6B
100
AcDbEntity
  8
0
 62
     3
100
AcDbLine
 10
-341.5888087141383
 20
91.48466896776879
 30
0.0
 11
-341.6301703741382
 21
91.42060839776879
 31
0.0
  0
LINE
  5
795
330
6B
100
AcDbEntity
  8
0
 62
     3
100
AcDbLine
 10
-341.6301703741382
 20
91.42060839776879
 30
0.0
 11
-341.6693626941381
 21
91.34683257776881
 31
0.0
  0
LINE
  5
796
330
6B
100
AcDbEntity
  8
0
 62
     3
100
AcDbLine
 10
-341.6693626941381
 20
91.34683257776881
 30
0.0
 11
-341.7060827341383
 21
91.2639117477688
 31
0.0
  0
LINE
  5
797
330
6B
100
AcDbEntity
  8
0
 62
     3
100
AcDbLine
 10
-341.7060827341383
 20
91.2639117477688
 30
0.0
 11
-341.7400466641383
 21
91.1724868477688
 31
0.0
  0
LINE
  5
798
330
6B
100
AcDbEntity
  8
0
 62
     3
100
AcDbLine
 10
-341.7400466641383
 20
91.1724868477688
 30
0.0
 11
-341.7709919641382
 21
91.07326453776876
 31
0.0
  0
LINE
  5
799
330
6B
100
AcDbEntity
  8
0
 62
     3
100
AcDbLine
 10
-341.7709919641382
 20
91.07326453776876
 30
0.0
 11
-341.7986794441382
 21
90.9670117677688
 31
0.0
  0
LINE
  5
79A
330
6B
100
AcDbEntity
  8
0
 62
     3
100
AcDbLine
 10
-341.7986794441382
 20
90.9670117677688
 30
0.0
 11
-341.8228950941383
 21
90.85454980776878
 31
0.0
  0
LINE
  5
79B
330
6B
100
AcDbEntity
  8
0
 62
     3
100
AcDbLine
 10
-341.8228950941383
 20
90.85454980776878
 30
0.0
 11
-341.8434517341383
 21
90.73674792776881
 31
0.0
  0
LINE
  5
79C
330
6B
100
AcDbEntity
  8
0
 62
     3
100
AcDbLine
 10
-341.8434517341383
 20
90.73674792776881
 30
0.0
 11
-341.8601904741382
 21
90.6145166877688
 31
0.0
  0
LINE
  5
79D
330
6B
100
AcDbEntity
  8
0
 62
     3
100
AcDbLine
 10
-341.8601904741382
 20
90.6145166877688
 30
0.0
 11
-341.8729819341383
 21
90.48880086776881
 31
0.0
  0
LINE
  5
79E
330
6B
100
AcDbEntity
  8
0
 62
     3
100
AcDbLine
 10
-341.8729819341383
 20
90.48880086776881
 30
0.0
 11
-341.8817272441383
 21
90.36057218776878
 31
0.0
  0
LINE
  5
79F
330
6B
100
AcDbEntity
  8
0
 62
     3
100
AcDbLine
 10
-341.8817272441383
 20
90.36057218776878
 30
0.0
 11
-341.8863588041383
 21
90.23082177776879
 31
0.0
  0
LINE
  5
7A0
330
6B
100
AcDbEntity
  8
0
 62
     3
100
AcDbLine
 10
-341.8863588041383
 20
90.23082177776879
 30
0.0
 11
-341.8868408141383
 21
90.10055255776881
 31
0.0
  0
LINE
  5
7A1
330
6B
100
AcDbEntity
  8
0
 62
     3
100
AcDbLine
 10
-341.8868408141383
 20
90.10055255776881
 30
0.0
 11
-341.8831695541381
 21
89.97077142776879
 31
0.0
  0
LINE
  5
7A2
330
6B
100
AcDbEntity
  8
0
 62
     3
100
AcDbLine
 10
-341.8831695541381
 20
89.97077142776879
 30
0.0
 11
-341.8753733941382
 21
89.8424815377688
 31
0.0
  0
LINE
  5
7A3
330
6B
100
AcDbEntity
  8
0
 62
     3
100
AcDbLine
 10
-341.8753733941382
 20
89.8424815377688
 30
0.0
 11
-341.8635125941382
 21
89.71667449776878
 31
0.0
  0
LINE
  5
7A4
330
6B
100
AcDbEntity
  8
0
 62
     3
100
AcDbLine
 10
-341.8635125941382
 20
89.71667449776878
 30
0.0
 11
-341.8476788441382
 21
89.59432273776881
 31
0.0
  0
LINE
  5
7A5
330
6B
100
AcDbEntity
  8
0
 62
     3
100
AcDbLine
 10
-341.8476788441382
 20
89.59432273776881
 30
0.0
 11
-341.8279945141382
 21
89.47637196776879
 31
0.0
  0
LINE
  5
7A6
330
6B
100
AcDbEntity
  8
0
 62
     3
100
AcDbLine
 10
-341.8279945141382
 20
89.47637196776879
 30
0.0
 11
-341.8046117641383
 21
89.3637338877688
 31
0.0
  0
LINE
  5
7A7
330
6B
100
AcDbEntity
  8
0
 62
     3
100
AcDbLine
 10
-341.8046117641383
 20
89.3637338877688
 30
0.0
 11
-341.7777113241382
 21
89.25727912776878
 31
0.0
  0
LINE
  5
7A8
330
6B
100
AcDbEntity
  8
0
 62
     3
100
AcDbLine
 10
-341.7777113241382
 20
89.25727912776878
 30
0.0
 11
-341.7475011241382
 21
89.15783054776879
 31
0.0
  0
LINE
  5
7A9
330
6B
100
AcDbEntity
  8
0
 62
     3
100
AcDbLine
 10
-341.7475011241382
 20
89.15783054776879
 30
0.0
 11
-341.7142146841383
 21
89.0661568077688
 31
0.0
  0
LINE
  5
7AA
330
6B
100
AcDbEntity
  8
0
 62
     3
100
AcDbLine
 10
-341.7142146841383
 20
89.0661568077688
 30
0.0
 11
-341.6781092741381
 21
88.98296651776879
 31
0.0
  0
LINE
  5
7AB
330
6B
100
AcDbEntity
  8
0
 62
     3
100
AcDbLine
 10
-341.6781092741381
 20
88.98296651776879
 30
0.0
 11
-341.6394639741383
 21
88.9089026777688
 31
0.0
  0
LINE
  5
7AC
330
6B
100
AcDbEntity
  8
0
 62
     3
100
AcDbLine
 10
-341.6394639741383
 20
88.9089026777688
 30
0.0
 11
-341.5985774941382
 21
88.84453778776878
 31
0.0
  0
LINE
  5
7AD
330
6B
100
AcDbEntity
  8
0
 62
     3
100
AcDbLine
 10
-341.5985774941382
 20
88.84453778776878
 30
0.0
 11
-341.5557658741383
 21
88.7903693377688
 31
0.0
  0
LINE
  5
7AE
330
6B
100
AcDbEntity
  8
0
 62
     3
100
AcDbLine
 10
-341.5557658741383
 20
88.7903693377688
 30
0.0
 11
-341.5113600241382
 21
88.74681601776881
 31
0.0
  0
LINE
  5
7AF
330
6B
100
AcDbEntity
  8
0
 62
     3
100
AcDbLine
 10
-341.5113600241382
 20
88.74681601776881
 30
0.0
 11
-341.4657031641383
 21
88.71421448776876
 31
0.0
  0
LINE
  5
7B0
330
6B
100
AcDbEntity
  8
0
 62
     3
100
AcDbLine
 10
-341.4657031641383
 20
88.71421448776876
 30
0.0
 11
-341.4191482041382
 21
88.6928167377688
 31
0.0
  0
LINE
  5
7B1
330
6B
100
AcDbEntity
  8
0
 62
     3
100
AcDbLine
 10
-341.4191482041382
 20
88.6928167377688
 30
0.0
 11
-341.3720550041381
 21
88.68278814776877
 31
0.0
  0
LINE
  5
7B2
330
6B
100
AcDbEntity
  8
0
 62
     3
100
AcDbLine
 10
-341.3720550041381
 20
88.68278814776877
 30
0.0
 11
-341.3247875441382
 21
88.68420624776879
 31
0.0
  0
LINE
  5
7B3
330
6B
100
AcDbEntity
  8
0
 62
     3
100
AcDbLine
 10
-341.3247875441382
 20
88.68420624776879
 30
0.0
 11
-341.2777112041382
 21
88.69706006776878
 31
0.0
  0
LINE
  5
7B4
330
6B
100
AcDbEntity
  8
0
 62
     3
100
AcDbLine
 10
-341.2777112041382
 20
88.69706006776878
 30
0.0
 11
-341.2311898441382
 21
88.72125026776881
 31
0.0
  0
LINE
  5
7B5
330
6B
100
AcDbEntity
  8
0
 62
     3
100
AcDbLine
 10
-341.2311898441382
 20
88.72125026776881
 30
0.0
 11
-341.1855830541382
 21
88.75658984776881
 31
0.0
  0
LINE
  5
7B6
330
6B
100
AcDbEntity
  8
0
 62
     3
100
AcDbLine
 10
-341.1855830541382
 20
88.75658984776881
 30
0.0
 11
-341.1412433541383
 21
88.80280567776878
 31
0.0
  0
LINE
  5
7B7
330
6B
100
AcDbEntity
  8
0
 62
     3
100
AcDbLine
 10
-341.1412433541383
 20
88.80280567776878
 30
0.0
 11
-341.0985134641381
 21
88.85954050776879
 31
0.0
  0
LINE
  5
7B8
330
6B
100
AcDbEntity
  8
0
 62
     3
100
AcDbLine
 10
-341.0985134641381
 20
88.85954050776879
 30
0.0
 11
-341.0577236641383
 21
88.92635582776881
 31
0.0
  0
LINE
  5
7B9
330
6B
100
AcDbEntity
  8
0
 62
     3
100
AcDbLine
 10
-341.0577236641383
 20
88.92635582776881
 30
0.0
 11
-341.0191892341383
 21
89.00273516776882
 31
0.0
  0
LINE
  5
7BA
330
6B
100
AcDbEntity
  8
0
 62
     3
100
AcDbLine
 10
-341.0191892341383
 20
89.00273516776882
 30
0.0
 11
-340.9832080341382
 21
89.08808817776883
 31
0.0
  0
LINE
  5
7BB
330
6B
100
AcDbEntity
  8
0
 62
     3
100
AcDbLine
 10
-340.9832080341382
 20
89.08808817776883
 30
0.0
 11
-340.9500581741383
 21
89.18175510776881
 31
0.0
  0
LINE
  5
7BC
330
6B
100
AcDbEntity
  8
0
 62
     3
100
AcDbLine
 10
-340.9500581741383
 20
89.18175510776881
 30
0.0
 11
-340.9199958941382
 21
89.28301196776876
 31
0.0
  0
LINE
  5
7BD
330
6B
100
AcDbEntity
  8
0
 62
     3
100
AcDbLine
 10
-340.9199958941382
 20
89.28301196776876
 30
0.0
 11
-340.8932535441382
 21
89.39107608776881
 31
0.0
  0
LINE
  5
7BE
330
6B
100
AcDbEntity
  8
0
 62
     3
100
AcDbLine
 10
-340.8932535441382
 20
89.39107608776881
 30
0.0
 11
-340.8700378441382
 21
89.50511219776879
 31
0.0
  0
LINE
  5
7BF
330
6B
100
AcDbEntity
  8
0
 62
     3
100
AcDbLine
 10
-340.8700378441382
 20
89.50511219776879
 30
0.0
 11
-340.8505282341382
 21
89.6242388477688
 31
0.0
  0
TEXT
  5
7C0
330
6B
100
AcDbEntity
  8
0
  6
Continuous
 62
     4
100
AcDbText
 10
-423.2692366941381
 20
68.54411339776881
 30
0.0
 40
3.0
  1
10
100
AcDbText
  0
LINE
  5
7C1
330
6B
100
AcDbEntity
  8
0
  6
ByBlock
 62
     0
370
    -2
100
AcDbLine
 10
-419.0192366941381
 20
68.58898589776881
 30
0.0
 11
-416.5192366941381
 21
67.91911339776881
 31
0.0
  0
LINE
  5
7C2
330
6B
100
AcDbEntity
  8
0
  6
ByBlock
 62
     0
370
    -2
100
AcDbLine
 10
-416.5192366941381
 20
67.91911339776881
 30
0.0
 11
-419.0192366941381
 21
67.24924089776881
 31
0.0
  0
LINE
  5
7C3
330
6B
100
AcDbEntity
  8
0
  6
ByBlock
 62
     0
370
    -2
100
AcDbLine
 10
-416.5192366941381
 20
67.91911339776881
 30
0.0
 11
-419.0192366941381
 21
67.91911339776881
 31
0.0
  0
LINE
  5
7C4
330
6B
100
AcDbEntity
  8
0
  6
ByBlock
 62
     0
370
    -2
100
AcDbLine
 10
-424.0192366941381
 20
67.24924089776881
 30
0.0
 11
-426.5192366941382
 21
67.91911339776881
 31
0.0
  0
LINE
  5
7C5
330
6B
100
AcDbEntity
  8
0
  6
ByBlock
 62
     0
370
    -2
100
AcDbLine
 10
-426.5192366941382
 20
67.91911339776881
 30
0.0
 11
-424.0192366941381
 21
68.58898589776881
 31
0.0
  0
LINE
  5
7C6
330
6B
100
AcDbEntity
  8
0
  6
ByBlock
 62
     0
370
    -2
100
AcDbLine
 10
-426.5192366941382
 20
67.91911339776881
 30
0.0
 11
-424.0192366941381
 21
67.91911339776881
 31
0.0
  0
TEXT
  5
7C7
330
6B
100
AcDbEntity
  8
0
  6
Continuous
 62
     4
100
AcDbText
 10
-327.4598071941382
 20
68.54411339776881
 30
0.0
 40
3.0
  1
54
100
AcDbText
  0
LINE
  5
7C8
330
6B
100
AcDbEntity
  8
0
  6
ByBlock
 62
     0
370
    -2
100
AcDbLine
 10
-300.4507516941382
 20
68.58898589776881
 30
0.0
 11
-297.9507516941382
 21
67.91911339776881
 31
0.0
  0
LINE
  5
7C9
330
6B
100
AcDbEntity
  8
0
  6
ByBlock
 62
     0
370
    -2
100
AcDbLine
 10
-297.9507516941382
 20
67.91911339776881
 30
0.0
 11
-300.4507516941382
 21
67.24924089776881
 31
0.0
  0
LINE
  5
7CA
330
6B
100
AcDbEntity
  8
0
  6
ByBlock
 62
     0
370
    -2
100
AcDbLine
 10
-297.9507516941382
 20
67.91911339776881
 30
0.0
 11
-300.4507516941382
 21
67.91911339776881
 31
0.0
  0
LINE
  5
7CB
330
6B
100
AcDbEntity
  8
0
  6
ByBlock
 62
     0
370
    -2
100
AcDbLine
 10
-349.4688626941382
 20
67.24924089776881
 30
0.0
 11
-351.9688626941382
 21
67.91911339776881
 31
0.0
  0
LINE
  5
7CC
330
6B
100
AcDbEntity
  8
0
  6
ByBlock
 62
     0
370
    -2
100
AcDbLine
 10
-351.9688626941382
 20
67.91911339776881
 30
0.0
 11
-349.4688626941382
 21
68.58898589776881
 31
0.0
  0
LINE
  5
7CD
330
6B
100
AcDbEntity
  8
0
  6
ByBlock
 62
     0
370
    -2
100
AcDbLine
 10
-351.9688626941382
 20
67.91911339776881
 30
0.0
 11
-349.4688626941382
 21
67.91911339776881
 31
0.0
  0
TEXT
  5
7CE
330
6B
100
AcDbEntity
  8
0
  6
Continuous
 62
     4
100
AcDbText
 10
-436.8492196941382
 20
-40.60925760223125
 30
0.0
 40
3.0
  1
%%C15
 50
90.0
100
AcDbText
  0
LINE
  5
7CF
330
6B
100
AcDbEntity
  8
0
  6
ByBlock
 62
     0
370
    -2
100
AcDbLine
 10
-436.8940921941382
 20
-32.10925760223119
 30
0.0
 11
-436.2242196941381
 21
-29.60925760223119
 31
0.0
  0
LINE
  5
7D0
330
6B
100
AcDbEntity
  8
0
  6
ByBlock
 62
     0
370
    -2
100
AcDbLine
 10
-436.2242196941381
 20
-29.60925760223119
 30
0.0
 11
-435.5543471941381
 21
-32.10925760223119
 31
0.0
  0
LINE
  5
7D1
330
6B
100
AcDbEntity
  8
0
  6
ByBlock
 62
     0
370
    -2
100
AcDbLine
 10
-436.2242196941381
 20
-29.60925760223119
 30
0.0
 11
-436.2242196941381
 21
-32.10925760223119
 31
0.0
  0
LINE
  5
7D2
330
6B
100
AcDbEntity
  8
0
  6
ByBlock
 62
     0
370
    -2
100
AcDbLine
 10
-435.5543471941381
 20
-42.10925760223118
 30
0.0
 11
-436.2242196941381
 21
-44.60925760223118
 31
0.0
  0
LINE
  5
7D3
330
6B
100
AcDbEntity
  8
0
  6
ByBlock
 62
     0
370
    -2
100
AcDbLine
 10
-436.2242196941381
 20
-44.60925760223118
 30
0.0
 11
-436.8940921941382
 21
-42.10925760223118
 31
0.0
  0
LINE
  5
7D4
330
6B
100
AcDbEntity
  8
0
  6
ByBlock
 62
     0
370
    -2
100
AcDbLine
 10
-436.2242196941381
 20
-44.60925760223118
 30
0.0
 11
-436.2242196941381
 21
-42.10925760223118
 31
0.0
  0
TEXT
  5
7D5
330
6B
100
AcDbEntity
  8
0
  6
Continuous
 62
     4
100
AcDbText
 10
-371.7931776941384
 20
-39.14356060223126
 30
0.0
 40
3.0
  1
12
 50
90.0
100
AcDbText
  0
LINE
  5
7D6
330
6B
100
AcDbEntity
  8
0
  6
ByBlock
 62
     0
370
    -2
100
AcDbLine
 10
-371.8380501941384
 20
-33.64356060223119
 30
0.0
 11
-371.1681776941384
 21
-31.1435606022312
 31
0.0
  0
LINE
  5
7D7
330
6B
100
AcDbEntity
  8
0
  6
ByBlock
 62
     0
370
    -2
100
AcDbLine
 10
-371.1681776941384
 20
-31.1435606022312
 30
0.0
 11
-370.4983051941383
 21
-33.64356060223119
 31
0.0
  0
LINE
  5
7D8
330
6B
100
AcDbEntity
  8
0
  6
ByBlock
 62
     0
370
    -2
100
AcDbLine
 10
-371.1681776941384
 20
-31.1435606022312
 30
0.0
 11
-371.1681776941384
 21
-33.64356060223119
 31
0.0
  0
LINE
  5
7D9
330
6B
100
AcDbEntity
  8
0
  6
ByBlock
 62
     0
370
    -2
100
AcDbLine
 10
-370.4983051941383
 20
-40.64356060223118
 30
0.0
 11
-371.1681776941384
 21
-43.14356060223118
 31
0.0
  0
LINE
  5
7DA
330
6B
100
AcDbEntity
  8
0
  6
ByBlock
 62
     0
370
    -2
100
AcDbLine
 10
-371.1681776941384
 20
-43.14356060223118
 30
0.0
 11
-371.8380501941384
 21
-40.64356060223118
 31
0.0
  0
LINE
  5
7DB
330
6B
100
AcDbEntity
  8
0
  6
ByBlock
 62
     0
370
    -2
100
AcDbLine
 10
-371.1681776941384
 20
-43.14356060223118
 30
0.0
 11
-371.1681776941384
 21
-40.64356060223118
 31
0.0
  0
TEXT
  5
7DC
330
6B
100
AcDbEntity
  8
0
  6
Continuous
 62
     4
100
AcDbText
 10
-407.4917776941381
 20
-28.88425760223126
 30
0.0
 40
3.0
  1
5
 50
90.0
100
AcDbText
  0
LINE
  5
7DD
330
6B
100
AcDbEntity
  8
0
  6
ByBlock
 62
     0
370
    -2
100
AcDbLine
 10
-406.1969051941382
 20
-32.0092576022312
 30
0.0
 11
-406.8667776941381
 21
-34.5092576022312
 31
0.0
  0
LINE
  5
7DE
330
6B
100
AcDbEntity
  8
0
  6
ByBlock
 62
     0
370
    -2
100
AcDbLine
 10
-406.8667776941381
 20
-34.5092576022312
 30
0.0
 11
-407.5366501941381
 21
-32.0092576022312
 31
0.0
  0
LINE
  5
7DF
330
6B
100
AcDbEntity
  8
0
  6
ByBlock
 62
     0
370
    -2
100
AcDbLine
 10
-406.8667776941381
 20
-34.5092576022312
 30
0.0
 11
-406.8667776941381
 21
-32.0092576022312
 31
0.0
  0
LINE
  5
7E0
330
6B
100
AcDbEntity
  8
0
  6
ByBlock
 62
     0
370
    -2
100
AcDbLine
 10
-407.5366501941381
 20
-42.20925760223119
 30
0.0
 11
-406.8667776941381
 21
-39.70925760223119
 31
0.0
  0
LINE
  5
7E1
330
6B
100
AcDbEntity
  8
0
  6
ByBlock
 62
     0
370
    -2
100
AcDbLine
 10
-406.8667776941381
 20
-39.70925760223119
 30
0.0
 11
-406.1969051941382
 21
-42.20925760223119
 31
0.0
  0
LINE
  5
7E2
330
6B
100
AcDbEntity
  8
0
  6
ByBlock
 62
     0
370
    -2
100
AcDbLine
 10
-406.8667776941381
 20
-39.70925760223119
 30
0.0
 11
-406.8667776941381
 21
-42.20925760223119
 31
0.0
  0
TEXT
  5
7E3
330
6B
100
AcDbEntity
  8
0
  6
Continuous
 62
     4
100
AcDbText
 10
-286.9086966941383
 20
21.60438489776876
 30
0.0
 40
3.0
  1
70
 50
90.0
100
AcDbText
  0
LINE
  5
7E4
330
6B
100
AcDbEntity
  8
0
  6
ByBlock
 62
     0
370
    -2
100
AcDbLine
 10
-286.9535691941383
 20
56.56932139776881
 30
0.0
 11
-286.2836966941383
 21
59.06932139776881
 31
0.0
  0
LINE
  5
7E5
330
6B
100
AcDbEntity
  8
0
  6
ByBlock
 62
     0
370
    -2
100
AcDbLine
 10
-286.2836966941383
 20
59.06932139776881
 30
0.0
 11
-285.6138241941383
 21
56.56932139776881
 31
0.0
  0
LINE
  5
7E6
330
6B
100
AcDbEntity
  8
0
  6
ByBlock
 62
     0
370
    -2
100
AcDbLine
 10
-286.2836966941383
 20
59.06932139776881
 30
0.0
 11
-286.2836966941383
 21
56.56932139776881
 31
0.0
  0
LINE
  5
7E7
330
6B
100
AcDbEntity
  8
0
  6
ByBlock
 62
     0
370
    -2
100
AcDbLine
 10
-285.6138241941383
 20
-8.860551602231199
 30
0.0
 11
-286.2836966941383
 21
-11.3605516022312
 31
0.0
  0
LINE
  5
7E8
330
6B
100
AcDbEntity
  8
0
  6
ByBlock
 62
     0
370
    -2
100
AcDbLine
 10
-286.2836966941383
 20
-11.3605516022312
 30
0.0
 11
-286.9535691941383
 21
-8.860551602231199
 31
0.0
  0
LINE
  5
7E9
330
6B
100
AcDbEntity
  8
0
  6
ByBlock
 62
     0
370
    -2
100
AcDbLine
 10
-286.2836966941383
 20
-11.3605516022312
 30
0.0
 11
-286.2836966941383
 21
-8.860551602231199
 31
0.0
  0
TEXT
  5
7EA
330
6B
100
AcDbEntity
  8
0
  6
Continuous
 62
     4
100
AcDbText
 10
-295.0332506941382
 20
-6.860551602231246
 30
0.0
 40
3.0
  1
13
 50
90.0
100
AcDbText
  0
LINE
  5
7EB
330
6B
100
AcDbEntity
  8
0
  6
ByBlock
 62
     0
370
    -2
100
AcDbLine
 10
-295.0781231941382
 20
-0.8605516022311993
 30
0.0
 11
-294.4082506941382
 21
1.6394483977688
 31
0.0
  0
LINE
  5
7EC
330
6B
100
AcDbEntity
  8
0
  6
ByBlock
 62
     0
370
    -2
100
AcDbLine
 10
-294.4082506941382
 20
1.6394483977688
 30
0.0
 11
-293.7383781941382
 21
-0.8605516022311993
 31
0.0
  0
LINE
  5
7ED
330
6B
100
AcDbEntity
  8
0
  6
ByBlock
 62
     0
370
    -2
100
AcDbLine
 10
-294.4082506941382
 20
1.6394483977688
 30
0.0
 11
-294.4082506941382
 21
-0.8605516022311993
 31
0.0
  0
LINE
  5
7EE
330
6B
100
AcDbEntity
  8
0
  6
ByBlock
 62
     0
370
    -2
100
AcDbLine
 10
-293.7383781941382
 20
-8.860551602231197
 30
0.0
 11
-294.4082506941382
 21
-11.36055160223119
 31
0.0
  0
LINE
  5
7EF
330
6B
100
AcDbEntity
  8
0
  6
ByBlock
 62
     0
370
    -2
100
AcDbLine
 10
-294.4082506941382
 20
-11.36055160223119
 30
0.0
 11
-295.0781231941382
 21
-8.860551602231197
 31
0.0
  0
LINE
  5
7F0
330
6B
100
AcDbEntity
  8
0
  6
ByBlock
 62
     0
370
    -2
100
AcDbLine
 10
-294.4082506941382
 20
-11.36055160223119
 30
0.0
 11
-294.4082506941382
 21
-8.860551602231197
 31
0.0
  0
TEXT
  5
7F1
330
6B
100
AcDbEntity
  8
0
  6
Continuous
 62
     4
100
AcDbText
 10
-317.8592853524876
 20
33.11255937679419
 30
0.0
 40
3.0
  1
\U+220530
 50
326.5193269840139
100
AcDbText
  0
LINE
  5
7F2
330
6B
100
AcDbEntity
  8
0
  6
ByBlock
 62
     0
370
    -2
100
AcDbLine
 10
-311.130512065932
 20
28.71594418603517
 30
0.0
 11
-309.4148711430373
 21
26.7780831512999
 31
0.0
  0
LINE
  5
7F3
330
6B
100
AcDbEntity
  8
0
  6
ByBlock
 62
     0
370
    -2
100
AcDbLine
 10
-309.4148711430373
 20
26.7780831512999
 30
0.0
 11
-311.8695899888075
 21
27.59850045638117
 31
0.0
  0
LINE
  5
7F4
330
6B
100
AcDbEntity
  8
0
  6
ByBlock
 62
     0
370
    -2
100
AcDbLine
 10
-309.4148711430373
 20
26.7780831512999
 30
0.0
 11
-311.5000510273698
 21
28.15722232120817
 31
0.0
  0
LINE
  5
7F5
330
6B
100
AcDbEntity
  8
0
  6
ByBlock
 62
     0
370
    -2
100
AcDbLine
 10
-332.7709903223443
 20
41.42269860950241
 30
0.0
 11
-334.486631245239
 21
43.36055964423768
 31
0.0
  0
LINE
  5
7F6
330
6B
100
AcDbEntity
  8
0
  6
ByBlock
 62
     0
370
    -2
100
AcDbLine
 10
-334.486631245239
 20
43.36055964423768
 30
0.0
 11
-332.0319123994687
 21
42.54014233915641
 31
0.0
  0
LINE
  5
7F7
330
6B
100
AcDbEntity
  8
0
  6
ByBlock
 62
     0
370
    -2
100
AcDbLine
 10
-334.486631245239
 20
43.36055964423768
 30
0.0
 11
-332.4014513609065
 21
41.9814204743294
 31
0.0
  0
ENDSEC
  0
SECTION
  2
OBJECTS
  0
DICTIONARY
  5
C
330
0
100
AcDbDictionary
281
     1
  3
ACAD_2007HEADERVARS_RT
350
7F9
  3
ACAD_COLOR
350
62
  3
ACAD_GROUP
350
D
  3
ACAD_LAYOUT
350
61
  3
ACAD_MATERIAL
350
10
  3
ACAD_MLEADERSTYLE
350
65
  3
ACAD_MLINESTYLE
350
5E
  3
ACAD_PLOTSETTINGS
350
60
  3
ACAD_PLOTSTYLENAME
350
E
  3
ACAD_SCALELIST
350
42
  3
ACAD_TABLESTYLE
350
63
  3
ACAD_VISUALSTYLE
350
29
  3
ACDB_RECOMPOSE_DATA
350
6B3
  3
AcDbVariableDictionary
350
6A9
  3
DWGPROPS
350
7F8
  0
DICTIONARY
  5
326
330
2
100
AcDbDictionary
280
     1
281
     1
  3
ACAD_LAYERSTATES
360
327
  0
DICTIONARY
  5
6A7
330
54
100
AcDbDictionary
280
     1
281
     1
  3
ADSK_XREC_LAYER_RECONCILED
360
6A8
  0
DICTIONARY
  5
5FD
330
6B
100
AcDbDictionary
280
     1
281
     1
  3
ACAD_SORTENTS
360
5FE
  0
DICTIONARY
  5
7F9
102
{ACAD_REACTORS
330
C
102
}
330
C
100
AcDbDictionary
281
     1
  3
DIMARCSYM
350
7FB
  3
DIMFXL
350
7FA
  3
DIMJOGANG
350
7FC
  0
DICTIONARY
  5
62
102
{ACAD_REACTORS
330
C
102
}
330
C
100
AcDbDictionary
281
     1
  0
DICTIONARY
  5
D
102
{ACAD_REACTORS
330
C
102
}
330
C
100
AcDbDictionary
281
     1
  0
DICTIONARY
  5
61
102
{ACAD_REACTORS
330
C
102
}
330
C
100
AcDbDictionary
281
     1
  3
Model
350
6E
  3
レイアウト1
350
6A
  0
DICTIONARY
  5
10
102
{ACAD_REACTORS
330
C
102
}
330
C
100
AcDbDictionary
281
     1
  3
ByBlock
350
19
  3
ByLayer
350
11
  3
Global
350
21
  0
DICTIONARY
  5
65
102
{ACAD_REACTORS
330
C
102
}
330
C
100
AcDbDictionary
281
     1
  3
Standard
350
66
  0
DICTIONARY
  5
5E
102
{ACAD_REACTORS
330
C
102
}
330
C
100
AcDbDictionary
281
     1
  3
Standard
350
5F
  0
DICTIONARY
  5
60
102
{ACAD_REACTORS
330
C
102
}
330
C
100
AcDbDictionary
281
     1
  0
ACDBDICTIONARYWDFLT
  5
E
102
{ACAD_REACTORS
330
C
102
}
330
C
100
AcDbDictionary
281
     1
  3
Normal
350
F
100
AcDbDictionaryWithDefault
340
F
  0
DICTIONARY
  5
42
102
{ACAD_REACTORS
330
C
102
}
330
C
100
AcDbDictionary
281
     1
  3
A0
350
43
  3
A1
350
44
  3
A2
350
45
  3
A3
350
46
  3
A4
350
47
  3
A5
350
48
  3
A6
350
49
  3
A7
350
4A
  3
A8
350
4B
  3
A9
350
4C
  3
B0
350
4D
  3
B1
350
4E
  3
B2
350
4F
  3
B3
350
50
  3
B4
350
51
  3
B5
350
52
  3
B6
350
53
  0
DICTIONARY
  5
63
102
{ACAD_REACTORS
330
C
102
}
330
C
100
AcDbDictionary
281
     1
  3
Standard
350
64
  0
DICTIONARY
  5
29
102
{ACAD_REACTORS
330
C
102
}
330
C
100
AcDbDictionary
281
     1
  3
2dWireframe
350
2F
  3
3D Hidden
350
6F7
  3
3dWireframe
350
6F6
  3
Basic
350
2E
  3
Brighten
350
35
  3
ColorChange
350
39
  3
Conceptual
350
32
  3
Dim
350
34
  3
EdgeColorOff
350
41
  3
Facepattern
350
38
  3
Flat
350
2A
  3
FlatWithEdges
350
2B
  3
Gouraud
350
2C
  3
GouraudWithEdges
350
2D
  3
Hidden
350
31
  3
JitterOff
350
3F
  3
Linepattern
350
37
  3
OverhangOff
350
40
  3
Realistic
350
33
  3
Shaded
350
3E
  3
Shaded with edges
350
3D
  3
Shades of Gray
350
3A
  3
Sketchy
350
3B
  3
Thicken
350
36
  3
Wireframe
350
30
  3
X-Ray
350
3C
  0
XRECORD
  5
6B3
102
{ACAD_REACTORS
330
C
102
}
330
C
100
AcDbXrecord
280
     1
 90
        1
330
64
  0
DICTIONARY
  5
6A9
102
{ACAD_REACTORS
330
C
102
}
330
C
100
AcDbDictionary
281
     1
  3
CANNOSCALE
350
6AC
  3
CMLEADERSTYLE
350
6AB
  3
CTABLESTYLE
350
6AA
  3
DIMASSOC
350
6AF
  3
INDEXCTL
350
6AE
  3
SORTENTS
350
6AD
  3
XCLIPFRAME
350
6B0
  0
XRECORD
  5
7F8
102
{ACAD_REACTORS
330
C
102
}
330
C
100
AcDbXrecord
280
     1
  1
DWGPROPS COOKIE
  2

  3

  4

  6

  7

  8
MAKITA
  9

300
=
301
=
302
=
303
=
304
=
305
=
306
=
307
=
308
=
309
=
 40
0.0142931365740741
 41
2456321.780983322
 42
2457233.565515255
  1

 90
        0
  0
DICTIONARY
  5
327
102
{ACAD_REACTORS
330
326
102
}
330
326
100
AcDbDictionary
281
     1
  0
XRECORD
  5
6A8
102
{ACAD_REACTORS
330
6A7
102
}
330
6A7
100
AcDbXrecord
280
     1
290
     1
  0
SORTENTSTABLE
  5
5FE
102
{ACAD_REACTORS
330
5FD
102
}
330
5FD
100
AcDbSortentsTable
330
6B
331
7E0
  5
5B1
331
7A1
  5
3AE
331
3D5
  5
7CE
331
39E
  5
797
331
35F
  5
758
331
54C
  5
34C
331
76A
  5
5AD
331
7E8
  5
5A3
331
7A9
  5
3BA
331
3DD
  5
7D6
331
3A6
  5
79F
331
367
  5
760
331
554
  5
354
331
772
  5
59D
331
7F0
  5
591
331
7B1
  5
3C2
331
3E5
  5
7DE
331
3AE
  5
7A7
331
36F
  5
768
331
55C
  5
35C
331
3ED
  5
7E6
331
377
  5
770
331
7B9
  5
3CA
331
5AA
  5
3ED
331
5CD
  5
548
331
56B
  5
36B
331
5B2
  5
3F5
331
5D5
  5
550
331
573
  5
373
331
5BA
  5
3F9
331
5DD
  5
558
331
57B
  5
37B
331
5E5
  5
560
331
583
  5
383
331
338
  5
5E0
331
7C1
  5
5DC
331
3F5
  5
7EE
331
3B6
  5
7AF
331
37F
  5
778
331
340
  5
5E8
331
782
  5
38F
331
7C9
  5
5D3
331
78A
  5
397
331
3BE
  5
7B7
331
387
  5
780
331
348
  5
5F0
331
535
  5
335
331
753
  5
5D8
331
7D1
  5
5CA
331
792
  5
39F
331
3C6
  5
7BF
331
38F
  5
788
331
350
  5
5F8
331
53D
  5
33D
331
7D9
  5
5BB
331
79A
  5
3A7
331
3CE
  5
7C7
331
397
  5
790
331
545
  5
345
331
763
  5
5B8
331
5FA
  5
575
331
5ED
  5
568
331
58B
  5
38B
331
5F5
  5
570
331
593
  5
3D6
331
65D
  5
7F5
331
59B
  5
3DE
331
5A3
  5
3E6
331
5C6
  5
541
331
564
  5
364
331
358
  5
751
331
7E1
  5
5B2
331
7A2
  5
3AF
331
3D6
  5
7CF
331
39F
  5
798
331
360
  5
759
331
54D
  5
34D
331
76B
  5
5AE
331
7E9
  5
5A4
331
7AA
  5
3BB
331
3DE
  5
7D7
331
3A7
  5
7A0
331
368
  5
761
331
555
  5
355
331
773
  5
59E
331
7F1
  5
588
331
7B2
  5
3C3
331
3E6
  5
7DF
331
3AF
  5
7A8
331
370
  5
769
331
55D
  5
35D
331
3EE
  5
7E7
331
7BA
  5
3CB
331
5AB
  5
3EE
331
5CE
  5
549
331
56C
  5
36C
331
5B3
  5
3F6
331
5D6
  5
551
331
574
  5
374
331
5BB
  5
3FA
331
5DE
  5
559
331
57C
  5
37C
331
5E6
  5
561
331
584
  5
384
331
378
  5
771
331
339
  5
5E1
331
7C2
  5
5DD
331
3F6
  5
7EF
331
3B7
  5
7B0
331
380
  5
779
331
341
  5
5E9
331
783
  5
390
331
7CA
  5
5D4
331
78B
  5
398
331
3BF
  5
7B8
331
388
  5
781
331
349
  5
5F1
331
536
  5
336
331
7D2
  5
5C5
331
793
  5
3A0
331
3C7
  5
7C0
331
390
  5
789
331
351
  5
5F9
331
53E
  5
33E
331
7DA
  5
5BC
331
79B
  5
3A8
331
3CF
  5
7C8
331
546
  5
346
331
764
  5
5B9
331
5FB
  5
576
331
5EE
  5
569
331
58C
  5
38C
331
5F6
  5
571
331
594
  5
3D7
331
65E
  5
7F6
331
3F8
  5
7F1
331
59C
  5
3DF
331
5A4
  5
3E7
331
5C7
  5
542
331
565
  5
365
331
398
  5
791
331
359
  5
752
331
7E2
  5
5B3
331
7A3
  5
3B0
331
3D7
  5
7D0
331
3A0
  5
799
331
361
  5
75A
331
54E
  5
34E
331
76C
  5
5AF
331
7EA
  5
598
331
7AB
  5
3BC
331
3DF
  5
7D8
331
3A8
  5
7A1
331
369
  5
762
331
556
  5
356
331
7F2
  5
582
331
7B3
  5
3C4
331
3E7
  5
7E0
331
371
  5
76A
331
55E
  5
35E
331
3EF
  5
7E8
331
7BB
  5
3CC
331
5AC
  5
3EF
331
5CF
  5
54A
331
56D
  5
36D
331
5D7
  5
552
331
575
  5
375
331
5BC
  5
3FB
331
5DF
  5
55A
331
57D
  5
37D
331
5E7
  5
562
331
585
  5
385
331
3B0
  5
7A9
331
379
  5
772
331
33A
  5
5E2
331
7C3
  5
5DE
331
3F7
  5
7F0
331
3B8
  5
7B1
331
381
  5
77A
331
342
  5
5EA
331
784
  5
391
331
7CB
  5
5CF
331
78C
  5
399
331
3C0
  5
7B9
331
389
  5
782
331
34A
  5
5F2
331
537
  5
337
331
7D3
  5
5C6
331
794
  5
3A1
331
3C8
  5
7C1
331
391
  5
78A
331
352
  5
5FA
331
53F
  5
33F
331
75D
  5
5C2
331
7DB
  5
5BD
331
79C
  5
3A9
331
547
  5
347
331
765
  5
5BA
331
5FC
  5
577
331
5EF
  5
56A
331
5F7
  5
572
331
595
  5
3D8
331
65F
  5
7F7
331
59D
  5
3E0
331
3F9
  5
7F2
331
5C0
  5
53B
331
5A5
  5
3E8
331
566
  5
366
331
3D0
  5
7C9
331
399
  5
792
331
35A
  5
753
331
7E3
  5
5AB
331
7A4
  5
3B1
331
3D8
  5
7D1
331
3A1
  5
79A
331
362
  5
75B
331
54F
  5
34F
331
76D
  5
5B0
331
7EB
  5
592
331
7AC
  5
3BD
331
3E0
  5
7D9
331
3A9
  5
7A2
331
36A
  5
763
331
557
  5
357
331
7F3
  5
583
331
7B4
  5
3C5
331
3E8
  5
7E1
331
372
  5
76B
331
55F
  5
35F
331
77D
  5
578
331
5C8
  5
543
331
7BC
  5
3CD
331
5AD
  5
3F0
331
5D0
  5
54B
331
56E
  5
36E
331
5D8
  5
553
331
576
  5
376
331
5BD
  5
530
331
5E0
  5
55B
331
57E
  5
37E
331
586
  5
386
331
3F0
  5
7E9
331
3B1
  5
7AA
331
37A
  5
773
331
33B
  5
5E3
331
7C4
  5
5D9
331
785
  5
392
331
3B9
  5
7B2
331
382
  5
77B
331
343
  5
5EB
331
530
  5
330
331
7CC
  5
5D0
331
78D
  5
39A
331
3C1
  5
7BA
331
38A
  5
783
331
34B
  5
5F3
331
538
  5
338
331
7D4
  5
5C7
331
795
  5
3A2
331
3C9
  5
7C2
331
392
  5
78B
331
353
  5
5FB
331
540
  5
340
331
75E
  5
5C3
331
7DC
  5
5B7
331
5E8
  5
563
331
79D
  5
3AA
331
5F0
  5
56B
331
58E
  5
3D1
331
596
  5
3D9
331
3FA
  5
7F3
331
5C1
  5
53C
331
59E
  5
3E1
331
5A6
  5
3E9
331
567
  5
367
331
3D1
  5
7CA
331
39A
  5
793
331
35B
  5
754
331
548
  5
348
331
7E4
  5
5A8
331
7A5
  5
3B2
331
3D9
  5
7D2
331
3A2
  5
79B
331
363
  5
75C
331
550
  5
350
331
7EC
  5
596
331
7AD
  5
3BE
331
3E1
  5
7DA
331
3AA
  5
7A3
331
36B
  5
764
331
558
  5
358
331
7F4
  5
584
331
3E9
  5
7E2
331
373
  5
76C
331
7B5
  5
3C6
331
5C9
  5
544
331
7BD
  5
3CE
331
5AE
  5
3F1
331
5D1
  5
54C
331
56F
  5
36F
331
5D9
  5
554
331
577
  5
377
331
5BE
  5
539
331
5E1
  5
55C
331
57F
  5
37F
331
587
  5
387
331
3F1
  5
7EA
331
3B2
  5
7AB
331
37B
  5
774
331
33C
  5
5E4
331
7C5
  5
5DA
331
786
  5
393
331
3BA
  5
7B3
331
383
  5
77C
331
344
  5
5EC
331
531
  5
331
331
7CD
  5
5D1
331
78E
  5
39B
331
3C2
  5
7BB
331
38B
  5
784
331
34C
  5
5F4
331
539
  5
339
331
757
  5
5CC
331
7D5
  5
5C1
331
796
  5
3A3
331
3CA
  5
7C3
331
393
  5
78C
331
354
  5
5FC
331
541
  5
341
331
75F
  5
5C4
331
7DD
  5
5B4
331
5E9
  5
564
331
79E
  5
3AB
331
5F1
  5
56C
331
58F
  5
3D2
331
597
  5
3DA
331
59F
  5
3E2
331
3FB
  5
7F4
331
5C2
  5
53D
331
560
  5
360
331
5A7
  5
3EA
331
3D2
  5
7CB
331
39B
  5
794
331
35C
  5
755
331
549
  5
349
331
7E5
  5
5A9
331
7A6
  5
3B3
331
3DA
  5
7D3
331
3A3
  5
79C
331
364
  5
75D
331
551
  5
351
331
7ED
  5
597
331
7AE
  5
3BF
331
3E2
  5
7DB
331
3AB
  5
7A4
331
36C
  5
765
331
559
  5
359
331
777
  5
589
331
7F5
  5
57C
331
3EA
  5
7E3
331
374
  5
76D
331
7B6
  5
3C7
331
5CA
  5
545
331
568
  5
368
331
7BE
  5
3CF
331
5AF
  5
3F2
331
5D2
  5
54D
331
570
  5
370
331
5DA
  5
555
331
578
  5
378
331
5BF
  5
53A
331
5E2
  5
55D
331
580
  5
380
331
3F2
  5
7EB
331
3B3
  5
7AC
331
37C
  5
775
331
33D
  5
5E5
331
7C6
  5
5DB
331
787
  5
394
331
3BB
  5
7B4
331
384
  5
77D
331
345
  5
5ED
331
532
  5
332
331
7CE
  5
5CB
331
78F
  5
39C
331
3C3
  5
7BC
331
38C
  5
785
331
34D
  5
5F5
331
53A
  5
33A
331
758
  5
5CD
331
7D6
  5
5BE
331
797
  5
3A4
331
3CB
  5
7C4
331
394
  5
78D
331
355
  5
65D
331
542
  5
342
331
7DE
  5
5B5
331
5EA
  5
565
331
588
  5
388
331
79F
  5
3AC
331
5F2
  5
56D
331
590
  5
3D3
331
598
  5
3DB
331
5A0
  5
3E3
331
5C3
  5
53E
331
561
  5
361
331
3D3
  5
7CC
331
39C
  5
795
331
35D
  5
756
331
54A
  5
34A
331
7E6
  5
5AA
331
7A7
  5
3B8
331
3DB
  5
7D4
331
3A4
  5
79D
331
365
  5
75E
331
552
  5
352
331
7EE
  5
58C
331
7AF
  5
3C0
331
3E3
  5
7DC
331
3AC
  5
7A5
331
36D
  5
766
331
55A
  5
35A
331
778
  5
58A
331
7F6
  5
57D
331
3EB
  5
7E4
331
375
  5
76E
331
7B7
  5
3C8
331
5A8
  5
3EB
331
5CB
  5
546
331
7BF
  5
3D0
331
569
  5
369
331
5B0
  5
3F3
331
5D3
  5
54E
331
571
  5
371
331
5B8
  5
3F7
331
5DB
  5
556
331
579
  5
379
331
5E3
  5
55E
331
581
  5
381
331
3F3
  5
7EC
331
3B4
  5
7AD
331
37D
  5
776
331
33E
  5
5E6
331
7C7
  5
5D5
331
788
  5
395
331
3BC
  5
7B5
331
385
  5
77E
331
346
  5
5EE
331
533
  5
333
331
751
  5
5D6
331
7CF
  5
5C8
331
790
  5
39D
331
3C4
  5
7BD
331
38D
  5
786
331
34E
  5
5F6
331
53B
  5
33B
331
759
  5
5CE
331
7D7
  5
5BF
331
798
  5
3A5
331
3CC
  5
7C5
331
395
  5
78E
331
356
  5
65E
331
543
  5
343
331
7DF
  5
5B6
331
5F8
  5
573
331
5EB
  5
566
331
589
  5
389
331
5F3
  5
56E
331
591
  5
3D4
331
599
  5
3DC
331
5A1
  5
3E4
331
5C4
  5
53F
331
562
  5
362
331
7A0
  5
3AD
331
3D4
  5
7CD
331
39D
  5
796
331
35E
  5
757
331
54B
  5
34B
331
769
  5
5AC
331
7E7
  5
5A2
331
7A8
  5
3B9
331
3DC
  5
7D5
331
3A5
  5
79E
331
366
  5
75F
331
553
  5
353
331
771
  5
59C
331
7EF
  5
590
331
7B0
  5
3C1
331
3E4
  5
7DD
331
3AD
  5
7A6
331
36E
  5
767
331
55B
  5
35B
331
779
  5
58B
331
7F7
  5
57E
331
3EC
  5
7E5
331
376
  5
76F
331
7B8
  5
3C9
331
5A9
  5
3EC
331
5CC
  5
547
331
56A
  5
36A
331
5B1
  5
3F4
331
5D4
  5
54F
331
572
  5
372
331
5B9
  5
3F8
331
5DC
  5
557
331
57A
  5
37A
331
5E4
  5
55F
331
582
  5
382
331
7C0
  5
5DF
331
3F4
  5
7ED
331
3B5
  5
7AE
331
37E
  5
777
331
33F
  5
5E7
331
781
  5
38E
331
7C8
  5
5D2
331
789
  5
396
331
3BD
  5
7B6
331
386
  5
77F
331
347
  5
5EF
331
534
  5
334
331
752
  5
5D7
331
7D0
  5
5C9
331
791
  5
39E
331
3C5
  5
7BE
331
38E
  5
787
331
34F
  5
5F7
331
53C
  5
33C
331
7D8
  5
5C0
331
799
  5
3A6
331
3CD
  5
7C6
331
396
  5
78F
331
357
  5
65F
331
544
  5
344
331
5F9
  5
574
331
5EC
  5
567
331
58A
  5
38A
331
5F4
  5
56F
331
592
  5
3D5
331
59A
  5
3DD
331
5A2
  5
3E5
331
5C5
  5
540
331
563
  5
363
  0
XRECORD
  5
7FB
102
{ACAD_REACTORS
330
7F9
102
}
330
7F9
100
AcDbXrecord
280
     1
 70
     2
  0
XRECORD
  5
7FA
102
{ACAD_REACTORS
330
7F9
102
}
330
7F9
100
AcDbXrecord
280
     1
 40
1.25
  0
XRECORD
  5
7FC
102
{ACAD_REACTORS
330
7F9
102
}
330
7F9
100
AcDbXrecord
280
     1
 40
1.570796326794896
  0
LAYOUT
  5
6E
102
{ACAD_XDICTIONARY
360
800
102
}
102
{ACAD_REACTORS
330
61
102
}
330
61
100
AcDbPlotSettings
  1

  2
none_device
  4
Letter_(8.50_x_11.00_Inches)
  6

 40
6.349999904632568
 41
6.349999904632568
 42
6.350006103515625
 43
6.350006103515625
 44
215.8999938964844
 45
279.3999938964844
 46
0.0
 47
0.0
 48
0.0
 49
0.0
140
0.0
141
0.0
142
1.0
143
67.89878048251893
 70
 11952
 72
     0
 73
     1
 74
     0
  7
n-plot.ctb
 75
     0
147
0.0147278050193767
148
18078.43074287693
149
5266.509814284508
100
AcDbLayout
  1
Model
 70
     1
 71
     0
 10
0.0
 20
0.0
 11
12.0
 21
9.0
 12
0.0
 22
0.0
 32
0.0
 14
0.0
 24
0.0
 34
0.0
 15
0.0
 25
0.0
 35
0.0
146
0.0
 13
0.0
 23
0.0
 33
0.0
 16
1.0
 26
0.0
 36
0.0
 17
0.0
 27
1.0
 37
0.0
 76
     0
330
6B
331
8B
1001
ACAD_PSEXT
1000
なし
1000
なし
1000
適切ではありません
1000
新しいプロッタ環境設定名を選択しない限り、レイアウトは印刷されません。
1070
     0
  0
LAYOUT
  5
6A
102
{ACAD_XDICTIONARY
360
7FE
102
}
102
{ACAD_REACTORS
330
61
102
}
330
61
100
AcDbPlotSettings
  1

  2
FX DP 205
  4

  6

 40
0.0
 41
0.0
 42
0.0
 43
0.0
 44
0.0
 45
0.0
 46
0.0
 47
0.0
 48
0.0
 49
0.0
140
0.0
141
0.0
142
1.0
143
1.0
 70
   688
 72
     0
 73
     0
 74
     5
  7
n-plot.ctb
 75
    16
147
1.0
148
0.0
149
0.0
100
AcDbLayout
  1
レイアウト1
 70
     1
 71
     1
 10
0.0
 20
0.0
 11
12.0
 21
9.0
 12
0.0
 22
0.0
 32
0.0
 14
1.000000000000000E+20
 24
1.000000000000000E+20
 34
1.000000000000000E+20
 15
-1.000000000000000E+20
 25
-1.000000000000000E+20
 35
-1.000000000000000E+20
146
0.0
 13
0.0
 23
0.0
 33
0.0
 16
1.0
 26
0.0
 36
0.0
 17
0.0
 27
1.0
 37
0.0
 76
     0
330
67
  0
MATERIAL
  5
19
102
{ACAD_XDICTIONARY
360
1A
102
}
102
{ACAD_REACTORS
330
10
102
}
330
10
100
AcDbMaterial
  1
ByBlock
 72
     0
 43
0.0208333333333333
 43
0.0
 43
0.0
 43
0.0
 43
0.0
 43
0.0208333333333333
 43
0.0
 43
0.0
 43
0.0
 43
0.0
 43
1.0
 43
0.0
 43
0.0
 43
0.0
 43
0.0
 43
1.0
 77
     0
 47
0.0208333333333333
 47
0.0
 47
0.0
 47
0.0
 47
0.0
 47
0.0208333333333333
 47
0.0
 47
0.0
 47
0.0
 47
0.0
 47
1.0
 47
0.0
 47
0.0
 47
0.0
 47
0.0
 47
1.0
171
     0
 49
0.0208333333333333
 49
0.0
 49
0.0
 49
0.0
 49
0.0
 49
0.0208333333333333
 49
0.0
 49
0.0
 49
0.0
 49
0.0
 49
1.0
 49
0.0
 49
0.0
 49
0.0
 49
0.0
 49
1.0
175
     0
142
0.0208333333333333
142
0.0
142
0.0
142
0.0
142
0.0
142
0.0208333333333333
142
0.0
142
0.0
142
0.0
142
0.0
142
1.0
142
0.0
142
0.0
142
0.0
142
0.0
142
1.0
179
     0
144
0.0208333333333333
144
0.0
144
0.0
144
0.0
144
0.0
144
0.0208333333333333
144
0.0
144
0.0
144
0.0
144
0.0
144
1.0
144
0.0
144
0.0
144
0.0
144
0.0
144
1.0
147
0.0208333333333333
147
0.0
147
0.0
147
0.0
147
0.0
147
0.0208333333333333
147
0.0
147
0.0
147
0.0
147
0.0
147
1.0
147
0.0
147
0.0
147
0.0
147
0.0
147
1.0
  0
MATERIAL
  5
11
102
{ACAD_XDICTIONARY
360
12
102
}
102
{ACAD_REACTORS
330
10
102
}
330
10
100
AcDbMaterial
  1
ByLayer
 72
     0
 43
0.0208333333333333
 43
0.0
 43
0.0
 43
0.0
 43
0.0
 43
0.0208333333333333
 43
0.0
 43
0.0
 43
0.0
 43
0.0
 43
1.0
 43
0.0
 43
0.0
 43
0.0
 43
0.0
 43
1.0
 77
     0
 47
0.0208333333333333
 47
0.0
 47
0.0
 47
0.0
 47
0.0
 47
0.0208333333333333
 47
0.0
 47
0.0
 47
0.0
 47
0.0
 47
1.0
 47
0.0
 47
0.0
 47
0.0
 47
0.0
 47
1.0
171
     0
 49
0.0208333333333333
 49
0.0
 49
0.0
 49
0.0
 49
0.0
 49
0.0208333333333333
 49
0.0
 49
0.0
 49
0.0
 49
0.0
 49
1.0
 49
0.0
 49
0.0
 49
0.0
 49
0.0
 49
1.0
175
     0
142
0.0208333333333333
142
0.0
142
0.0
142
0.0
142
0.0
142
0.0208333333333333
142
0.0
142
0.0
142
0.0
142
0.0
142
1.0
142
0.0
142
0.0
142
0.0
142
0.0
142
1.0
179
     0
144
0.0208333333333333
144
0.0
144
0.0
144
0.0
144
0.0
144
0.0208333333333333
144
0.0
144
0.0
144
0.0
144
0.0
144
1.0
144
0.0
144
0.0
144
0.0
144
0.0
144
1.0
147
0.0208333333333333
147
0.0
147
0.0
147
0.0
147
0.0
147
0.0208333333333333
147
0.0
147
0.0
147
0.0
147
0.0
147
1.0
147
0.0
147
0.0
147
0.0
147
0.0
147
1.0
  0
MATERIAL
  5
21
102
{ACAD_XDICTIONARY
360
22
102
}
102
{ACAD_REACTORS
330
10
102
}
330
10
100
AcDbMaterial
  1
Global
 72
     0
 43
0.0208333333333333
 43
0.0
 43
0.0
 43
0.0
 43
0.0
 43
0.0208333333333333
 43
0.0
 43
0.0
 43
0.0
 43
0.0
 43
1.0
 43
0.0
 43
0.0
 43
0.0
 43
0.0
 43
1.0
 77
     0
 47
0.0208333333333333
 47
0.0
 47
0.0
 47
0.0
 47
0.0
 47
0.0208333333333333
 47
0.0
 47
0.0
 47
0.0
 47
0.0
 47
1.0
 47
0.0
 47
0.0
 47
0.0
 47
0.0
 47
1.0
171
     0
 49
0.0208333333333333
 49
0.0
 49
0.0
 49
0.0
 49
0.0
 49
0.0208333333333333
 49
0.0
 49
0.0
 49
0.0
 49
0.0
 49
1.0
 49
0.0
 49
0.0
 49
0.0
 49
0.0
 49
1.0
175
     0
142
0.0208333333333333
142
0.0
142
0.0
142
0.0
142
0.0
142
0.0208333333333333
142
0.0
142
0.0
142
0.0
142
0.0
142
1.0
142
0.0
142
0.0
142
0.0
142
0.0
142
1.0
179
     0
144
0.0208333333333333
144
0.0
144
0.0
144
0.0
144
0.0
144
0.0208333333333333
144
0.0
144
0.0
144
0.0
144
0.0
144
1.0
144
0.0
144
0.0
144
0.0
144
0.0
144
1.0
147
0.0208333333333333
147
0.0
147
0.0
147
0.0
147
0.0
147
0.0208333333333333
147
0.0
147
0.0
147
0.0
147
0.0
147
1.0
147
0.0
147
0.0
147
0.0
147
0.0
147
1.0
  0
MLEADERSTYLE
  5
66
102
{ACAD_REACTORS
330
65
102
}
330
65
100
AcDbMLeaderStyle
170
     2
171
     1
172
     0
 90
        2
 40
0.0
 41
0.0
173
     1
 91
-1056964608
340
5A
 92
       -2
290
     1
 42
0.09
291
     1
 43
0.36
  3
Standard
 44
0.18
300

342
55
174
     1
178
     6
175
     1
176
     0
 93
-1056964608
 45
0.18
292
     0
297
     0
 46
0.18
 94
-1056964608
 47
1.0
 49
1.0
140
1.0
293
     1
141
0.0
294
     1
177
     0
142
1.0
295
     0
296
     0
143
0.125
1001
ACAD_MLEADERVER
1070
     2
1001
ACAD
1000
AcRTDxfName
1000
MLEADERSTYLE
  0
MLINESTYLE
  5
5F
102
{ACAD_REACTORS
330
5E
102
}
330
5E
100
AcDbMlineStyle
  2
STANDARD
 70
     0
  3

 62
   256
 51
90.0
 52
90.0
 71
     2
 49
0.5
 62
   256
  6
BYLAYER
 49
-0.5
 62
   256
  6
BYLAYER
  0
ACDBPLACEHOLDER
  5
F
102
{ACAD_REACTORS
330
E
102
}
330
E
  0
SCALE
  5
43
102
{ACAD_REACTORS
330
42
102
}
330
42
100
AcDbScale
 70
     0
300
1:1
140
1.0
141
1.0
290
     1
1001
ACAD
1000
AcRTDxfName
1000
SCALE
  0
SCALE
  5
44
102
{ACAD_REACTORS
330
42
102
}
330
42
100
AcDbScale
 70
     0
300
1/128" = 1'-0"
140
0.0078125
141
12.0
290
     0
1001
ACAD
1000
AcRTDxfName
1000
SCALE
  0
SCALE
  5
45
102
{ACAD_REACTORS
330
42
102
}
330
42
100
AcDbScale
 70
     0
300
1/64" = 1'-0"
140
0.015625
141
12.0
290
     0
1001
ACAD
1000
AcRTDxfName
1000
SCALE
  0
SCALE
  5
46
102
{ACAD_REACTORS
330
42
102
}
330
42
100
AcDbScale
 70
     0
300
1/32" = 1'-0"
140
0.03125
141
12.0
290
     0
1001
ACAD
1000
AcRTDxfName
1000
SCALE
  0
SCALE
  5
47
102
{ACAD_REACTORS
330
42
102
}
330
42
100
AcDbScale
 70
     0
300
1/16" = 1'-0"
140
0.0625
141
12.0
290
     0
1001
ACAD
1000
AcRTDxfName
1000
SCALE
  0
SCALE
  5
48
102
{ACAD_REACTORS
330
42
102
}
330
42
100
AcDbScale
 70
     0
300
3/32" = 1'-0"
140
0.09375
141
12.0
290
     0
1001
ACAD
1000
AcRTDxfName
1000
SCALE
  0
SCALE
  5
49
102
{ACAD_REACTORS
330
42
102
}
330
42
100
AcDbScale
 70
     0
300
1/8" = 1'-0"
140
0.125
141
12.0
290
     0
1001
ACAD
1000
AcRTDxfName
1000
SCALE
  0
SCALE
  5
4A
102
{ACAD_REACTORS
330
42
102
}
330
42
100
AcDbScale
 70
     0
300
3/16" = 1'-0"
140
0.1875
141
12.0
290
     0
1001
ACAD
1000
AcRTDxfName
1000
SCALE
  0
SCALE
  5
4B
102
{ACAD_REACTORS
330
42
102
}
330
42
100
AcDbScale
 70
     0
300
1/4" = 1'-0"
140
0.25
141
12.0
290
     0
1001
ACAD
1000
AcRTDxfName
1000
SCALE
  0
SCALE
  5
4C
102
{ACAD_REACTORS
330
42
102
}
330
42
100
AcDbScale
 70
     0
300
3/8" = 1'-0"
140
0.375
141
12.0
290
     0
1001
ACAD
1000
AcRTDxfName
1000
SCALE
  0
SCALE
  5
4D
102
{ACAD_REACTORS
330
42
102
}
330
42
100
AcDbScale
 70
     0
300
1/2" = 1'-0"
140
0.5
141
12.0
290
     0
1001
ACAD
1000
AcRTDxfName
1000
SCALE
  0
SCALE
  5
4E
102
{ACAD_REACTORS
330
42
102
}
330
42
100
AcDbScale
 70
     0
300
3/4" = 1'-0"
140
0.75
141
12.0
290
     0
1001
ACAD
1000
AcRTDxfName
1000
SCALE
  0
SCALE
  5
4F
102
{ACAD_REACTORS
330
42
102
}
330
42
100
AcDbScale
 70
     0
300
1" = 1'-0"
140
1.0
141
12.0
290
     0
1001
ACAD
1000
AcRTDxfName
1000
SCALE
  0
SCALE
  5
50
102
{ACAD_REACTORS
330
42
102
}
330
42
100
AcDbScale
 70
     0
300
1-1/2" = 1'-0"
140
1.5
141
12.0
290
     0
1001
ACAD
1000
AcRTDxfName
1000
SCALE
  0
SCALE
  5
51
102
{ACAD_REACTORS
330
42
102
}
330
42
100
AcDbScale
 70
     0
300
3" = 1'-0"
140
3.0
141
12.0
290
     0
1001
ACAD
1000
AcRTDxfName
1000
SCALE
  0
SCALE
  5
52
102
{ACAD_REACTORS
330
42
102
}
330
42
100
AcDbScale
 70
     0
300
6" = 1'-0"
140
6.0
141
12.0
290
     0
1001
ACAD
1000
AcRTDxfName
1000
SCALE
  0
SCALE
  5
53
102
{ACAD_REACTORS
330
42
102
}
330
42
100
AcDbScale
 70
     0
300
1'-0" = 1'-0"
140
12.0
141
12.0
290
     0
1001
ACAD
1000
AcRTDxfName
1000
SCALE
  0
TABLESTYLE
  5
64
102
{ACAD_XDICTIONARY
360
6B1
102
}
102
{ACAD_REACTORS
330
63
102
}
330
63
100
AcDbTableStyle
  3
Standard
 70
     0
 71
     0
 40
0.06
 41
0.06
280
     0
281
     0
  7
STANDARD
140
0.18
170
     2
 62
     0
 63
     7
283
     0
274
    -2
284
     1
 64
     0
275
    -2
285
     1
 65
     0
276
    -2
286
     1
 66
     0
277
    -2
287
     1
 67
     0
278
    -2
288
     1
 68
     0
279
    -2
289
     1
 69
     0
  7
STANDARD
140
0.25
170
     5
 62
     0
 63
     7
283
     0
274
    -2
284
     1
 64
     0
275
    -2
285
     1
 65
     0
276
    -2
286
     1
 66
     0
277
    -2
287
     1
 67
     0
278
    -2
288
     1
 68
     0
279
    -2
289
     1
 69
     0
  7
STANDARD
140
0.18
170
     5
 62
     0
 63
     7
283
     0
274
    -2
284
     1
 64
     0
275
    -2
285
     1
 65
     0
276
    -2
286
     1
 66
     0
277
    -2
287
     1
 67
     0
278
    -2
288
     1
 68
     0
279
    -2
289
     1
 69
     0
  0
VISUALSTYLE
  5
2F
102
{ACAD_XDICTIONARY
360
6C2
102
}
102
{ACAD_REACTORS
330
29
102
}
330
29
100
AcDbVisualStyle
  2
2dWireframe
 70
     4
 71
     0
 72
     2
 73
     0
 90
        0
 40
-0.6
 41
-30.0
 62
     5
 63
     7
 74
     1
 91
        4
 64
     7
 65
   257
 75
     1
175
     1
 42
1.0
 92
        0
 66
   257
 43
1.0
 76
     1
 77
     6
 78
     2
 67
     7
 79
     5
170
     0
171
     0
290
     0
174
     0
 93
        1
 44
0.0
173
     0
291
     0
 45
0.0
1001
ACAD
1000
AcDbSavedByObjectVersion
1070
     0
1000
AcDbSavedByObjectVersion
1070
     0
  0
VISUALSTYLE
  5
6F7
102
{ACAD_REACTORS
330
29
102
}
330
29
100
AcDbVisualStyle
  2
3D Hidden
 70
     6
 71
     1
 72
     2
 73
     2
 90
        0
 40
-0.6
 41
-30.0
 62
     5
 63
     7
 74
     2
 91
        2
 64
     7
 65
   257
 75
     2
175
     1
 42
40.0
 92
        0
 66
   257
 43
1.0
 76
     1
 77
     6
 78
     2
 67
     7
 79
     3
170
     0
171
     0
290
     0
174
     0
 93
        1
 44
0.0
173
     0
291
     0
 45
0.0
1001
ACAD
1000
AcDbSavedByObjectVersion
1070
     0
  0
VISUALSTYLE
  5
6F6
102
{ACAD_REACTORS
330
29
102
}
330
29
100
AcDbVisualStyle
  2
3dWireframe
 70
     5
 71
     0
 72
     2
 73
     0
 90
        0
 40
-0.6
 41
-30.0
 62
     5
 63
     7
 74
     1
 91
        4
 64
     7
 65
   257
 75
     1
175
     1
 42
1.0
 92
        0
 66
   257
 43
1.0
 76
     1
 77
     6
 78
     2
 67
     7
 79
     5
170
     0
171
     0
290
     0
174
     0
 93
        1
 44
0.0
173
     0
291
     0
 45
0.0
1001
ACAD
1000
AcDbSavedByObjectVersion
1070
     0
  0
VISUALSTYLE
  5
2E
102
{ACAD_XDICTIONARY
360
6C0
102
}
102
{ACAD_REACTORS
330
29
102
}
330
29
100
AcDbVisualStyle
  2
Basic
 70
     7
 71
     1
 72
     0
 73
     1
 90
        0
 40
-0.6
 41
-30.0
 62
     5
 63
     7
 74
     0
 91
        4
 64
     7
 65
   257
 75
     1
175
     1
 42
1.0
 92
        8
 66
     7
 43
1.0
 76
     1
 77
     6
 78
     2
 67
     7
 79
     5
170
     0
171
     0
290
     0
174
     0
 93
        1
 44
0.0
173
     0
291
     1
 45
0.0
1001
ACAD
1000
AcDbSavedByObjectVersion
1070
     0
1000
AcDbSavedByObjectVersion
1070
     0
  0
VISUALSTYLE
  5
35
102
{ACAD_XDICTIONARY
360
6CE
102
}
102
{ACAD_REACTORS
330
29
102
}
330
29
100
AcDbVisualStyle
  2
Brighten
 70
    12
 71
     2
 72
     2
 73
     0
 90
        0
 40
-0.6
 41
-30.0
 62
     5
 63
     7
 74
     1
 91
        4
 64
     7
 65
   257
 75
     1
175
     1
 42
1.0
 92
        8
 66
     7
 43
1.0
 76
     1
 77
     6
 78
     2
 67
     7
 79
     5
170
     0
171
     0
290
     0
174
     0
 93
        1
 44
50.0
173
     0
291
     1
 45
0.0
1001
ACAD
1000
AcDbSavedByObjectVersion
1070
     0
1000
AcDbSavedByObjectVersion
1070
     0
  0
VISUALSTYLE
  5
39
102
{ACAD_XDICTIONARY
360
6D6
102
}
102
{ACAD_REACTORS
330
29
102
}
330
29
100
AcDbVisualStyle
  2
ColorChange
 70
    16
 71
     2
 72
     2
 73
     3
 90
        0
 40
-0.6
 41
-30.0
 62
     5
 63
     8
 74
     1
 91
        4
 64
     7
 65
   257
 75
     1
175
     1
 42
1.0
 92
        8
 66
     8
 43
1.0
 76
     1
 77
     6
 78
     2
 67
     7
 79
     5
170
     0
171
     0
290
     0
174
     0
 93
        1
 44
0.0
173
     0
291
     1
 45
0.0
1001
ACAD
1000
AcDbSavedByObjectVersion
1070
     0
1000
AcDbSavedByObjectVersion
1070
     0
  0
VISUALSTYLE
  5
32
102
{ACAD_XDICTIONARY
360
6C8
102
}
102
{ACAD_REACTORS
330
29
102
}
330
29
100
AcDbVisualStyle
  2
Conceptual
 70
     9
 71
     3
 72
     2
 73
     0
 90
        0
 40
-0.6
 41
-30.0
 62
     5
 63
     7
 74
     2
 91
        2
 64
     7
 65
   257
 75
     1
175
     1
 42
179.0
 92
        8
 66
     7
 43
1.0
 76
     1
 77
     6
 78
     2
 67
     7
 79
     3
170
     0
171
     0
290
     0
174
     0
 93
        1
 44
0.0
173
     0
291
     0
 45
0.0
1001
ACAD
1000
AcDbSavedByObjectVersion
1070
     0
1000
AcDbSavedByObjectVersion
1070
     0
  0
VISUALSTYLE
  5
34
102
{ACAD_XDICTIONARY
360
6CC
102
}
102
{ACAD_REACTORS
330
29
102
}
330
29
100
AcDbVisualStyle
  2
Dim
 70
    11
 71
     2
 72
     2
 73
     0
 90
        0
 40
-0.6
 41
-30.0
 62
     5
 63
     7
 74
     1
 91
        4
 64
     7
 65
   257
 75
     1
175
     1
 42
1.0
 92
        8
 66
     7
 43
1.0
 76
     1
 77
     6
 78
     2
 67
     7
 79
     5
170
     0
171
     0
290
     0
174
     0
 93
        1
 44
-50.0
173
     0
291
     1
 45
0.0
1001
ACAD
1000
AcDbSavedByObjectVersion
1070
     0
1000
AcDbSavedByObjectVersion
1070
     0
  0
VISUALSTYLE
  5
41
102
{ACAD_XDICTIONARY
360
6E6
102
}
102
{ACAD_REACTORS
330
29
102
}
330
29
100
AcDbVisualStyle
  2
EdgeColorOff
 70
    22
 71
     2
 72
     2
 73
     0
 90
        0
 40
-0.6
 41
-30.0
 62
     5
 63
     7
 74
     1
 91
        4
 64
     7
 65
   257
 75
     1
175
     1
 42
1.0
 92
        8
 66
     7
 43
1.0
 76
     1
 77
     6
 78
     2
 67
     7
 79
     5
170
     0
171
     0
290
     0
174
     0
 93
        1
 44
0.0
173
     0
291
     1
 45
0.0
1001
ACAD
1000
AcDbSavedByObjectVersion
1070
     0
1000
AcDbSavedByObjectVersion
1070
     0
  0
VISUALSTYLE
  5
38
102
{ACAD_XDICTIONARY
360
6D4
102
}
102
{ACAD_REACTORS
330
29
102
}
330
29
100
AcDbVisualStyle
  2
Facepattern
 70
    15
 71
     2
 72
     2
 73
     0
 90
        0
 40
-0.6
 41
-30.0
 62
     5
 63
     7
 74
     1
 91
        4
 64
     7
 65
   257
 75
     1
175
     1
 42
1.0
 92
        8
 66
     7
 43
1.0
 76
     1
 77
     6
 78
     2
 67
     7
 79
     5
170
     0
171
     0
290
     0
174
     0
 93
        1
 44
0.0
173
     0
291
     1
 45
0.0
1001
ACAD
1000
AcDbSavedByObjectVersion
1070
     0
1000
AcDbSavedByObjectVersion
1070
     0
  0
VISUALSTYLE
  5
2A
102
{ACAD_XDICTIONARY
360
6B8
102
}
102
{ACAD_REACTORS
330
29
102
}
330
29
100
AcDbVisualStyle
  2
Flat
 70
     0
 71
     2
 72
     1
 73
     1
 90
        2
 40
-0.6
 41
30.0
 62
     5
 63
     7
 74
     0
 91
        0
 64
     7
 65
   257
 75
     1
175
     1
 42
1.0
 92
        8
 66
     7
 43
1.0
 76
     1
 77
     6
 78
     2
 67
     7
 79
     5
170
     0
171
     0
290
     0
174
     0
 93
       13
 44
0.0
173
     0
291
     1
 45
0.0
1001
ACAD
1000
AcDbSavedByObjectVersion
1070
     0
1000
AcDbSavedByObjectVersion
1070
     0
  0
VISUALSTYLE
  5
2B
102
{ACAD_XDICTIONARY
360
6BA
102
}
102
{ACAD_REACTORS
330
29
102
}
330
29
100
AcDbVisualStyle
  2
FlatWithEdges
 70
     1
 71
     2
 72
     1
 73
     1
 90
        2
 40
-0.6
 41
30.0
 62
     5
 63
     7
 74
     1
 91
        0
 64
     7
 65
   257
 75
     1
175
     1
 42
1.0
 92
        0
 66
   257
 43
1.0
 76
     1
 77
     6
 78
     2
 67
     7
 79
     5
170
     0
171
     0
290
     0
174
     0
 93
       13
 44
0.0
173
     0
291
     1
 45
0.0
1001
ACAD
1000
AcDbSavedByObjectVersion
1070
     0
1000
AcDbSavedByObjectVersion
1070
     0
  0
VISUALSTYLE
  5
2C
102
{ACAD_XDICTIONARY
360
6BC
102
}
102
{ACAD_REACTORS
330
29
102
}
330
29
100
AcDbVisualStyle
  2
Gouraud
 70
     2
 71
     2
 72
     2
 73
     1
 90
        2
 40
-0.6
 41
30.0
 62
     5
 63
     7
 74
     0
 91
        0
 64
     7
 65
   257
 75
     1
175
     1
 42
1.0
 92
        0
 66
     7
 43
1.0
 76
     1
 77
     6
 78
     2
 67
     7
 79
     5
170
     0
171
     0
290
     0
174
     0
 93
       13
 44
0.0
173
     0
291
     1
 45
0.0
1001
ACAD
1000
AcDbSavedByObjectVersion
1070
     0
1000
AcDbSavedByObjectVersion
1070
     0
  0
VISUALSTYLE
  5
2D
102
{ACAD_XDICTIONARY
360
6BE
102
}
102
{ACAD_REACTORS
330
29
102
}
330
29
100
AcDbVisualStyle
  2
GouraudWithEdges
 70
     3
 71
     2
 72
     2
 73
     1
 90
        2
 40
-0.6
 41
30.0
 62
     5
 63
     7
 74
     1
 91
        0
 64
     7
 65
   257
 75
     1
175
     1
 42
1.0
 92
        0
 66
   257
 43
1.0
 76
     1
 77
     6
 78
     2
 67
     7
 79
     5
170
     0
171
     0
290
     0
174
     0
 93
       13
 44
0.0
173
     0
291
     1
 45
0.0
1001
ACAD
1000
AcDbSavedByObjectVersion
1070
     0
1000
AcDbSavedByObjectVersion
1070
     0
  0
VISUALSTYLE
  5
31
102
{ACAD_XDICTIONARY
360
6C6
102
}
102
{ACAD_REACTORS
330
29
102
}
330
29
100
AcDbVisualStyle
  2
Hidden
 70
     6
 71
     1
 72
     2
 73
     2
 90
        0
 40
-0.6
 41
-30.0
 62
     5
 63
     7
 74
     2
 91
        2
 64
     7
 65
   257
 75
     2
175
     1
 42
40.0
 92
        0
 66
   257
 43
1.0
 76
     1
 77
     6
 78
     2
 67
     7
 79
     3
170
     0
171
     0
290
     0
174
     0
 93
        1
 44
0.0
173
     0
291
     0
 45
0.0
1001
ACAD
1000
AcDbSavedByObjectVersion
1070
     0
1000
AcDbSavedByObjectVersion
1070
     0
  0
VISUALSTYLE
  5
3F
102
{ACAD_XDICTIONARY
360
6E2
102
}
102
{ACAD_REACTORS
330
29
102
}
330
29
100
AcDbVisualStyle
  2
JitterOff
 70
    20
 71
     2
 72
     2
 73
     0
 90
        0
 40
-0.6
 41
-30.0
 62
     5
 63
     7
 74
     1
 91
        4
 64
     7
 65
   257
 75
     1
175
     1
 42
1.0
 92
       10
 66
     7
 43
1.0
 76
     1
 77
     6
 78
     2
 67
     7
 79
     5
170
     0
171
     0
290
     0
174
     0
 93
        1
 44
0.0
173
     0
291
     1
 45
0.0
1001
ACAD
1000
AcDbSavedByObjectVersion
1070
     0
1000
AcDbSavedByObjectVersion
1070
     0
  0
VISUALSTYLE
  5
37
102
{ACAD_XDICTIONARY
360
6D2
102
}
102
{ACAD_REACTORS
330
29
102
}
330
29
100
AcDbVisualStyle
  2
Linepattern
 70
    14
 71
     2
 72
     2
 73
     0
 90
        0
 40
-0.6
 41
-30.0
 62
     5
 63
     7
 74
     1
 91
        4
 64
     7
 65
   257
 75
     7
175
     7
 42
1.0
 92
        8
 66
     7
 43
1.0
 76
     1
 77
     6
 78
     2
 67
     7
 79
     5
170
     0
171
     0
290
     0
174
     0
 93
        1
 44
0.0
173
     0
291
     1
 45
0.0
1001
ACAD
1000
AcDbSavedByObjectVersion
1070
     0
1000
AcDbSavedByObjectVersion
1070
     0
  0
VISUALSTYLE
  5
40
102
{ACAD_XDICTIONARY
360
6E4
102
}
102
{ACAD_REACTORS
330
29
102
}
330
29
100
AcDbVisualStyle
  2
OverhangOff
 70
    21
 71
     2
 72
     2
 73
     0
 90
        0
 40
-0.6
 41
-30.0
 62
     5
 63
     7
 74
     1
 91
        4
 64
     7
 65
   257
 75
     1
175
     1
 42
1.0
 92
        9
 66
     7
 43
1.0
 76
     1
 77
     6
 78
     2
 67
     7
 79
     5
170
     0
171
     0
290
     0
174
     0
 93
        1
 44
0.0
173
     0
291
     1
 45
0.0
1001
ACAD
1000
AcDbSavedByObjectVersion
1070
     0
1000
AcDbSavedByObjectVersion
1070
     0
  0
VISUALSTYLE
  5
33
102
{ACAD_XDICTIONARY
360
6CA
102
}
102
{ACAD_REACTORS
330
29
102
}
330
29
100
AcDbVisualStyle
  2
Realistic
 70
     8
 71
     2
 72
     3
 73
     0
 90
        2
 40
-0.6
 41
30.0
 62
     5
 63
     7
 74
     0
 91
        0
 64
     7
 65
   257
 75
     1
175
     1
 42
1.0
 92
        8
 66
   257
 43
1.0
 76
     1
 77
     6
 78
     2
 67
     7
 79
     3
170
     0
171
     0
290
     0
174
     0
 93
       13
 44
0.0
173
     0
291
     0
 45
0.0
1001
ACAD
1000
AcDbSavedByObjectVersion
1070
     0
1000
AcDbSavedByObjectVersion
1070
     0
  0
VISUALSTYLE
  5
3E
102
{ACAD_XDICTIONARY
360
6E0
102
}
102
{ACAD_REACTORS
330
29
102
}
330
29
100
AcDbVisualStyle
  2
Shaded
 70
    27
 71
     2
 72
     2
 73
     1
 90
        2
 40
-0.6
 41
30.0
 62
     5
 63
     7
 74
     0
 91
        4
 64
     7
 65
   257
 75
     1
175
     1
 42
1.0
 92
        8
 66
   257
 43
1.0
 76
     1
 77
     6
 78
     2
 67
     8
 79
     3
170
     0
171
     0
290
     0
174
     0
 93
        5
 44
0.0
173
     0
291
     0
 45
0.0
1001
ACAD
1000
AcDbSavedByObjectVersion
1070
     0
1000
AcDbSavedByObjectVersion
1070
     0
  0
VISUALSTYLE
  5
3D
102
{ACAD_XDICTIONARY
360
6DE
102
}
102
{ACAD_REACTORS
330
29
102
}
330
29
100
AcDbVisualStyle
  2
Shaded with edges
 70
    26
 71
     2
 72
     2
 73
     1
 90
        2
 40
-0.6
 41
30.0
 62
     5
 63
     7
 74
     1
 91
       10
 64
     7
 65
   257
 75
     2
175
     1
 42
1.0
 92
        8
 66
   257
 43
1.0
 76
     1
 77
     6
 78
     2
 67
     7
 79
     3
170
     0
171
     0
290
     0
174
     0
 93
        5
 44
0.0
173
     0
291
     0
 45
0.0
1001
ACAD
1000
AcDbSavedByObjectVersion
1070
     0
1000
AcDbSavedByObjectVersion
1070
     0
  0
VISUALSTYLE
  5
3A
102
{ACAD_XDICTIONARY
360
6D8
102
}
102
{ACAD_REACTORS
330
29
102
}
330
29
100
AcDbVisualStyle
  2
Shades of Gray
 70
    23
 71
     2
 72
     2
 73
     3
 90
        0
 40
-0.6
 41
-30.0
 62
     5
 63
     7
 74
     2
 91
        2
 64
     7
 65
     7
 75
     1
175
     1
 42
40.0
 92
        8
 66
     7
 43
1.0
 76
     1
 77
     6
 78
     2
 67
     7
 79
     3
170
     0
171
     0
290
     0
174
     0
 93
        1
 44
0.0
173
     0
291
     0
 45
0.0
1001
ACAD
1000
AcDbSavedByObjectVersion
1070
     0
1000
AcDbSavedByObjectVersion
1070
     0
  0
VISUALSTYLE
  5
3B
102
{ACAD_XDICTIONARY
360
6DA
102
}
102
{ACAD_REACTORS
330
29
102
}
330
29
100
AcDbVisualStyle
  2
Sketchy
 70
    24
 71
     1
 72
     2
 73
     2
 90
        0
 40
-0.6
 41
-30.0
 62
     5
 63
     7
 74
     2
 91
        2
 64
     7
 65
     7
 75
     1
175
     1
 42
40.0
 92
       11
 66
     7
 43
1.0
 76
     1
 77
     6
 78
     2
 67
     7
 79
     6
170
     0
171
     0
290
     0
174
     0
 93
        1
 44
0.0
173
     0
291
     0
 45
0.0
1001
ACAD
1000
AcDbSavedByObjectVersion
1070
     0
1000
AcDbSavedByObjectVersion
1070
     0
  0
VISUALSTYLE
  5
36
102
{ACAD_XDICTIONARY
360
6D0
102
}
102
{ACAD_REACTORS
330
29
102
}
330
29
100
AcDbVisualStyle
  2
Thicken
 70
    13
 71
     2
 72
     2
 73
     0
 90
        0
 40
-0.6
 41
-30.0
 62
     5
 63
     7
 74
     1
 91
        4
 64
     7
 65
   257
 75
     1
175
     1
 42
1.0
 92
       12
 66
     7
 43
1.0
 76
     1
 77
     6
 78
     2
 67
     7
 79
     5
170
     0
171
     0
290
     0
174
     0
 93
        1
 44
0.0
173
     0
291
     1
 45
0.0
1001
ACAD
1000
AcDbSavedByObjectVersion
1070
     0
1000
AcDbSavedByObjectVersion
1070
     0
  0
VISUALSTYLE
  5
30
102
{ACAD_XDICTIONARY
360
6C4
102
}
102
{ACAD_REACTORS
330
29
102
}
330
29
100
AcDbVisualStyle
  2
Wireframe
 70
     5
 71
     0
 72
     2
 73
     0
 90
        0
 40
-0.6
 41
-30.0
 62
     5
 63
     7
 74
     1
 91
        4
 64
     7
 65
   257
 75
     1
175
     1
 42
1.0
 92
        0
 66
   257
 43
1.0
 76
     1
 77
     6
 78
     2
 67
     7
 79
     3
170
     0
171
     0
290
     0
174
     0
 93
        1
 44
0.0
173
     0
291
     0
 45
0.0
1001
ACAD
1000
AcDbSavedByObjectVersion
1070
     0
1000
AcDbSavedByObjectVersion
1070
     0
  0
VISUALSTYLE
  5
3C
102
{ACAD_XDICTIONARY
360
6DC
102
}
102
{ACAD_REACTORS
330
29
102
}
330
29
100
AcDbVisualStyle
  2
X-Ray
 70
    25
 71
     2
 72
     2
 73
     1
 90
        1
 40
0.5
 41
-30.0
 62
     5
 63
     7
 74
     1
 91
        0
 64
     7
 65
   257
 75
     1
175
     1
 42
1.0
 92
        8
 66
     7
 43
1.0
 76
     1
 77
     6
 78
     2
 67
     7
 79
     3
170
     0
171
     0
290
     0
174
     0
 93
       13
 44
0.0
173
     0
291
     0
 45
0.0
1001
ACAD
1000
AcDbSavedByObjectVersion
1070
     0
1000
AcDbSavedByObjectVersion
1070
     0
  0
DICTIONARYVAR
  5
6AC
102
{ACAD_REACTORS
330
6A9
102
}
330
6A9
100
DictionaryVariables
280
     0
  1
1:1
  0
DICTIONARYVAR
  5
6AB
102
{ACAD_REACTORS
330
6A9
102
}
330
6A9
100
DictionaryVariables
280
     0
  1
STANDARD
  0
DICTIONARYVAR
  5
6AA
102
{ACAD_REACTORS
330
6A9
102
}
330
6A9
100
DictionaryVariables
280
     0
  1
STANDARD
  0
DICTIONARYVAR
  5
6AF
102
{ACAD_REACTORS
330
6A9
102
}
330
6A9
100
DictionaryVariables
280
     0
  1
1
  0
DICTIONARYVAR
  5
6AE
102
{ACAD_REACTORS
330
6A9
102
}
330
6A9
100
DictionaryVariables
280
     0
  1
0
  0
DICTIONARYVAR
  5
6AD
102
{ACAD_REACTORS
330
6A9
102
}
330
6A9
100
DictionaryVariables
280
     0
  1
127
  0
DICTIONARYVAR
  5
6B0
102
{ACAD_REACTORS
330
6A9
102
}
330
6A9
100
DictionaryVariables
280
     0
  1
0
  0
DICTIONARY
  5
800
330
6E
100
AcDbDictionary
280
     1
281
     1
  3
ACAD_XREC_ROUNDTRIP
360
801
  0
DICTIONARY
  5
7FE
330
6A
100
AcDbDictionary
280
     1
281
     1
  3
ACAD_XREC_ROUNDTRIP
360
7FF
  0
DICTIONARY
  5
1A
330
19
100
AcDbDictionary
280
     1
281
     1
  3
ACAD_XREC_ROUNDTRIP
360
6B6
  3
BUMPTILE
360
1C
  3
DIFFUSETILE
360
1B
  3
OPACITYTILE
360
1F
  3
REFLECTIONTILE
360
1E
  3
REFRACTIONTILE
360
20
  3
SPECULARTILE
360
1D
  0
DICTIONARY
  5
12
330
11
100
AcDbDictionary
280
     1
281
     1
  3
ACAD_XREC_ROUNDTRIP
360
6B5
  3
BUMPTILE
360
14
  3
DIFFUSETILE
360
13
  3
OPACITYTILE
360
17
  3
REFLECTIONTILE
360
16
  3
REFRACTIONTILE
360
18
  3
SPECULARTILE
360
15
  0
DICTIONARY
  5
22
330
21
100
AcDbDictionary
280
     1
281
     1
  3
ACAD_XREC_ROUNDTRIP
360
6B7
  3
BUMPTILE
360
24
  3
DIFFUSETILE
360
23
  3
OPACITYTILE
360
27
  3
REFLECTIONTILE
360
26
  3
REFRACTIONTILE
360
28
  3
SPECULARTILE
360
25
  0
DICTIONARY
  5
6B1
330
64
100
AcDbDictionary
280
     1
281
     1
  3
ACAD_ROUNDTRIP_2008_TABLESTYLE_CELLSTYLEMAP
360
6B2
  3
ACAD_XREC_ROUNDTRIP
360
7FD
  0
DICTIONARY
  5
6C2
330
2F
100
AcDbDictionary
280
     1
281
     1
  3
ACAD_XREC_ROUNDTRIP
360
6C3
  0
DICTIONARY
  5
6C0
330
2E
100
AcDbDictionary
280
     1
281
     1
  3
ACAD_XREC_ROUNDTRIP
360
6C1
  0
DICTIONARY
  5
6CE
330
35
100
AcDbDictionary
280
     1
281
     1
  3
ACAD_XREC_ROUNDTRIP
360
6CF
  0
DICTIONARY
  5
6D6
330
39
100
AcDbDictionary
280
     1
281
     1
  3
ACAD_XREC_ROUNDTRIP
360
6D7
  0
DICTIONARY
  5
6C8
330
32
100
AcDbDictionary
280
     1
281
     1
  3
ACAD_XREC_ROUNDTRIP
360
6C9
  0
DICTIONARY
  5
6CC
330
34
100
AcDbDictionary
280
     1
281
     1
  3
ACAD_XREC_ROUNDTRIP
360
6CD
  0
DICTIONARY
  5
6E6
330
41
100
AcDbDictionary
280
     1
281
     1
  3
ACAD_XREC_ROUNDTRIP
360
6E7
  0
DICTIONARY
  5
6D4
330
38
100
AcDbDictionary
280
     1
281
     1
  3
ACAD_XREC_ROUNDTRIP
360
6D5
  0
DICTIONARY
  5
6B8
330
2A
100
AcDbDictionary
280
     1
281
     1
  3
ACAD_XREC_ROUNDTRIP
360
6B9
  0
DICTIONARY
  5
6BA
330
2B
100
AcDbDictionary
280
     1
281
     1
  3
ACAD_XREC_ROUNDTRIP
360
6BB
  0
DICTIONARY
  5
6BC
330
2C
100
AcDbDictionary
280
     1
281
     1
  3
ACAD_XREC_ROUNDTRIP
360
6BD
  0
DICTIONARY
  5
6BE
330
2D
100
AcDbDictionary
280
     1
281
     1
  3
ACAD_XREC_ROUNDTRIP
360
6BF
  0
DICTIONARY
  5
6C6
330
31
100
AcDbDictionary
280
     1
281
     1
  3
ACAD_XREC_ROUNDTRIP
360
6C7
  0
DICTIONARY
  5
6E2
330
3F
100
AcDbDictionary
280
     1
281
     1
  3
ACAD_XREC_ROUNDTRIP
360
6E3
  0
DICTIONARY
  5
6D2
330
37
100
AcDbDictionary
280
     1
281
     1
  3
ACAD_XREC_ROUNDTRIP
360
6D3
  0
DICTIONARY
  5
6E4
330
40
100
AcDbDictionary
280
     1
281
     1
  3
ACAD_XREC_ROUNDTRIP
360
6E5
  0
DICTIONARY
  5
6CA
330
33
100
AcDbDictionary
280
     1
281
     1
  3
ACAD_XREC_ROUNDTRIP
360
6CB
  0
DICTIONARY
  5
6E0
330
3E
100
AcDbDictionary
280
     1
281
     1
  3
ACAD_XREC_ROUNDTRIP
360
6E1
  0
DICTIONARY
  5
6DE
330
3D
100
AcDbDictionary
280
     1
281
     1
  3
ACAD_XREC_ROUNDTRIP
360
6DF
  0
DICTIONARY
  5
6D8
330
3A
100
AcDbDictionary
280
     1
281
     1
  3
ACAD_XREC_ROUNDTRIP
360
6D9
  0
DICTIONARY
  5
6DA
330
3B
100
AcDbDictionary
280
     1
281
     1
  3
ACAD_XREC_ROUNDTRIP
360
6DB
  0
DICTIONARY
  5
6D0
330
36
100
AcDbDictionary
280
     1
281
     1
  3
ACAD_XREC_ROUNDTRIP
360
6D1
  0
DICTIONARY
  5
6C4
330
30
100
AcDbDictionary
280
     1
281
     1
  3
ACAD_XREC_ROUNDTRIP
360
6C5
  0
DICTIONARY
  5
6DC
330
3C
100
AcDbDictionary
280
     1
281
     1
  3
ACAD_XREC_ROUNDTRIP
360
6DD
  0
XRECORD
  5
801
102
{ACAD_REACTORS
330
800
102
}
330
800
100
AcDbXrecord
280
     1
102
SHADEPLOT
 70
     0
102
SHADEPLOTRESLEVEL
 70
     2
102
SHADEPLOTCUSTOMDPI
 70
   300
  0
XRECORD
  5
7FF
102
{ACAD_REACTORS
330
7FE
102
}
330
7FE
100
AcDbXrecord
280
     1
102
SHADEPLOT
 70
     0
102
SHADEPLOTRESLEVEL
 70
     2
102
SHADEPLOTCUSTOMDPI
 70
   300
  0
XRECORD
  5
6B6
102
{ACAD_REACTORS
330
1A
102
}
330
1A
100
AcDbXrecord
280
     1
102
MATERIAL
148
0.0
149
0.0
149
0.0
 93
        0
 94
       63
282
     0
 72
     0
 77
     0
171
     0
175
     0
179
     0
273
     0
  0
XRECORD
  5
1C
102
{ACAD_REACTORS
330
1A
102
}
330
1A
100
AcDbXrecord
280
     1
270
     1
271
     1
  0
XRECORD
  5
1B
102
{ACAD_REACTORS
330
1A
102
}
330
1A
100
AcDbXrecord
280
     1
270
     1
271
     1
  0
XRECORD
  5
1F
102
{ACAD_REACTORS
330
1A
102
}
330
1A
100
AcDbXrecord
280
     1
270
     1
271
     1
  0
XRECORD
  5
1E
102
{ACAD_REACTORS
330
1A
102
}
330
1A
100
AcDbXrecord
280
     1
270
     1
271
     1
  0
XRECORD
  5
20
102
{ACAD_REACTORS
330
1A
102
}
330
1A
100
AcDbXrecord
280
     1
270
     1
271
     1
  0
XRECORD
  5
1D
102
{ACAD_REACTORS
330
1A
102
}
330
1A
100
AcDbXrecord
280
     1
270
     1
271
     1
  0
XRECORD
  5
6B5
102
{ACAD_REACTORS
330
12
102
}
330
12
100
AcDbXrecord
280
     1
102
MATERIAL
148
0.0
149
0.0
149
0.0
 93
        0
 94
       63
282
     0
 72
     0
 77
     0
171
     0
175
     0
179
     0
273
     0
  0
XRECORD
  5
14
102
{ACAD_REACTORS
330
12
102
}
330
12
100
AcDbXrecord
280
     1
270
     1
271
     1
  0
XRECORD
  5
13
102
{ACAD_REACTORS
330
12
102
}
330
12
100
AcDbXrecord
280
     1
270
     1
271
     1
  0
XRECORD
  5
17
102
{ACAD_REACTORS
330
12
102
}
330
12
100
AcDbXrecord
280
     1
270
     1
271
     1
  0
XRECORD
  5
16
102
{ACAD_REACTORS
330
12
102
}
330
12
100
AcDbXrecord
280
     1
270
     1
271
     1
  0
XRECORD
  5
18
102
{ACAD_REACTORS
330
12
102
}
330
12
100
AcDbXrecord
280
     1
270
     1
271
     1
  0
XRECORD
  5
15
102
{ACAD_REACTORS
330
12
102
}
330
12
100
AcDbXrecord
280
     1
270
     1
271
     1
  0
XRECORD
  5
6B7
102
{ACAD_REACTORS
330
22
102
}
330
22
100
AcDbXrecord
280
     1
102
MATERIAL
148
0.0
149
0.0
149
0.0
 93
        0
 94
       63
282
     0
 72
     0
 77
     0
171
     0
175
     0
179
     0
273
     0
  0
XRECORD
  5
24
102
{ACAD_REACTORS
330
22
102
}
330
22
100
AcDbXrecord
280
     1
270
     1
271
     1
  0
XRECORD
  5
23
102
{ACAD_REACTORS
330
22
102
}
330
22
100
AcDbXrecord
280
     1
270
     1
271
     1
  0
XRECORD
  5
27
102
{ACAD_REACTORS
330
22
102
}
330
22
100
AcDbXrecord
280
     1
270
     1
271
     1
  0
XRECORD
  5
26
102
{ACAD_REACTORS
330
22
102
}
330
22
100
AcDbXrecord
280
     1
270
     1
271
     1
  0
XRECORD
  5
28
102
{ACAD_REACTORS
330
22
102
}
330
22
100
AcDbXrecord
280
     1
270
     1
271
     1
  0
XRECORD
  5
25
102
{ACAD_REACTORS
330
22
102
}
330
22
100
AcDbXrecord
280
     1
270
     1
271
     1
  0
CELLSTYLEMAP
  5
6B2
102
{ACAD_REACTORS
330
6B1
102
}
330
6B1
100
AcDbCellStyleMap
 90
        3
300
CELLSTYLE
  1
TABLEFORMAT_BEGIN
 90
        5
170
     1
 91
        0
 92
    32768
 62
   257
 93
        1
300
CONTENTFORMAT
  1
CONTENTFORMAT_BEGIN
 90
        0
 91
        0
 92
      512
 93
        0
300

 40
0.0
140
1.0
 94
        5
 62
     0
340
55
144
0.25
309
CONTENTFORMAT_END
171
     0
 94
        0
309
TABLEFORMAT_END
  1
CELLSTYLE_BEGIN
 90
        1
 91
        1
300
_TITLE
309
CELLSTYLE_END
300
CELLSTYLE
  1
TABLEFORMAT_BEGIN
 90
        5
170
     1
 91
        0
 92
        0
 62
   257
 93
        1
300
CONTENTFORMAT
  1
CONTENTFORMAT_BEGIN
 90
        0
 91
        0
 92
      512
 93
        0
300

 40
0.0
140
1.0
 94
        5
 62
     0
340
55
144
0.18
309
CONTENTFORMAT_END
171
     0
 94
        0
309
TABLEFORMAT_END
  1
CELLSTYLE_BEGIN
 90
        2
 91
        1
300
_HEADER
309
CELLSTYLE_END
300
CELLSTYLE
  1
TABLEFORMAT_BEGIN
 90
        5
170
     1
 91
        0
 92
        0
 62
   257
 93
        1
300
CONTENTFORMAT
  1
CONTENTFORMAT_BEGIN
 90
        0
 91
        0
 92
      512
 93
        0
300

 40
0.0
140
1.0
 94
        2
 62
     0
340
55
144
0.18
309
CONTENTFORMAT_END
171
     0
 94
        0
309
TABLEFORMAT_END
  1
CELLSTYLE_BEGIN
 90
        3
 91
        2
300
_DATA
309
CELLSTYLE_END
1001
ACAD
1000
AcRTDxfName
1000
CELLSTYLEMAP
  0
XRECORD
  5
7FD
102
{ACAD_REACTORS
330
6B1
102
}
330
6B1
100
AcDbXrecord
280
     1
102
ACAD_ROUNDTRIP_PRE2007_TABLESTYLE
 90
      512
 91
        0
  1

 92
      512
 93
        0
  2

 94
      512
 95
        0
  3

  0
XRECORD
  5
6C3
102
{ACAD_REACTORS
330
6C2
102
}
330
6C2
100
AcDbXrecord
280
     1
102
RTVSPropertyOp0
 70
     1
102
RTVSPropertyOp1
 70
     1
102
RTVSPropertyOp2
 70
     1
102
RTVSPropertyOp3
 70
     1
102
RTVSPropertyOp4
 70
     1
102
RTVSPropertyOp5
 70
     1
102
RTVSPropertyOp6
 70
     1
102
RTVSPropertyOp7
 70
     1
102
RTVSPropertyOp8
 70
     1
102
RTVSPropertyOp9
 70
     1
102
RTVSPropertyOp10
 70
     1
102
RTVSPropertyOp11
 70
     1
102
RTVSPropertyOp12
 70
     1
102
RTVSPropertyOp13
 70
     1
102
RTVSPropertyOp14
 70
     1
102
RTVSPropertyOp15
 70
     1
102
RTVSPropertyOp16
 70
     1
102
RTVSPropertyOp17
 70
     1
102
RTVSPropertyOp18
 70
     1
102
RTVSPropertyOp19
 70
     1
102
RTVSPropertyOp20
 70
     1
102
RTVSPropertyOp21
 70
     1
102
RTVSPropertyOp22
 70
     1
102
RTVSPropertyOp23
 70
     1
102
RTVSPropertyOp24
 70
     1
102
RTVSPropertyOp25
 70
     1
102
RTVSPropertyOp26
 70
     1
102
RTVSPropertyOp27
 70
     1
102
RTVSPropertyOp28
 70
     1
102
RTVSPropertyOp29
 70
     1
102
RTVSPropertyOp30
 70
     1
102
RTVSPropertyOp31
 70
     1
102
RTVSPropertyOp32
 70
     1
  0
XRECORD
  5
6C1
102
{ACAD_REACTORS
330
6C0
102
}
330
6C0
100
AcDbXrecord
280
     1
102
RTVSPropertyOp0
 70
     1
102
RTVSPropertyOp1
 70
     1
102
RTVSPropertyOp2
 70
     1
102
RTVSPropertyOp3
 70
     1
102
RTVSPropertyOp4
 70
     1
102
RTVSPropertyOp5
 70
     1
102
RTVSPropertyOp6
 70
     1
102
RTVSPropertyOp7
 70
     1
102
RTVSPropertyOp8
 70
     1
102
RTVSPropertyOp9
 70
     1
102
RTVSPropertyOp10
 70
     1
102
RTVSPropertyOp11
 70
     1
102
RTVSPropertyOp12
 70
     1
102
RTVSPropertyOp13
 70
     1
102
RTVSPropertyOp14
 70
     1
102
RTVSPropertyOp15
 70
     1
102
RTVSPropertyOp16
 70
     1
102
RTVSPropertyOp17
 70
     1
102
RTVSPropertyOp18
 70
     1
102
RTVSPropertyOp19
 70
     1
102
RTVSPropertyOp20
 70
     1
102
RTVSPropertyOp21
 70
     1
102
RTVSPropertyOp22
 70
     1
102
RTVSPropertyOp23
 70
     1
102
RTVSPropertyOp24
 70
     1
102
RTVSPropertyOp25
 70
     1
102
RTVSPropertyOp26
 70
     1
102
RTVSPropertyOp27
 70
     1
102
RTVSPropertyOp28
 70
     1
102
RTVSPropertyOp29
 70
     1
102
RTVSPropertyOp30
 70
     1
102
RTVSPropertyOp31
 70
     1
102
RTVSPropertyOp32
 70
     1
  0
XRECORD
  5
6CF
102
{ACAD_REACTORS
330
6CE
102
}
330
6CE
100
AcDbXrecord
280
     1
102
RTVSPropertyOp0
 70
     1
102
RTVSPropertyOp1
 70
     1
102
RTVSPropertyOp2
 70
     1
102
RTVSPropertyOp3
 70
     1
102
RTVSPropertyOp4
 70
     1
102
RTVSPropertyOp5
 70
     1
102
RTVSPropertyOp6
 70
     1
102
RTVSPropertyOp7
 70
     1
102
RTVSPropertyOp8
 70
     1
102
RTVSPropertyOp9
 70
     1
102
RTVSPropertyOp10
 70
     1
102
RTVSPropertyOp11
 70
     1
102
RTVSPropertyOp12
 70
     1
102
RTVSPropertyOp13
 70
     1
102
RTVSPropertyOp14
 70
     1
102
RTVSPropertyOp15
 70
     1
102
RTVSPropertyOp16
 70
     1
102
RTVSPropertyOp17
 70
     1
102
RTVSPropertyOp18
 70
     1
102
RTVSPropertyOp19
 70
     1
102
RTVSPropertyOp20
 70
     1
102
RTVSPropertyOp21
 70
     1
102
RTVSPropertyOp22
 70
     1
102
RTVSPropertyOp23
 70
     1
102
RTVSPropertyOp24
 70
     1
102
RTVSPropertyOp25
 70
     1
102
RTVSPropertyOp26
 70
     1
102
RTVSPropertyOp27
 70
     1
102
RTVSPropertyOp28
 70
     1
102
RTVSPropertyOp29
 70
     1
102
RTVSPropertyOp30
 70
     1
102
RTVSPropertyOp31
 70
     1
102
RTVSPropertyOp32
 70
     1
  0
XRECORD
  5
6D7
102
{ACAD_REACTORS
330
6D6
102
}
330
6D6
100
AcDbXrecord
280
     1
102
RTVSPropertyOp0
 70
     1
102
RTVSPropertyOp1
 70
     1
102
RTVSPropertyOp2
 70
     1
102
RTVSPropertyOp3
 70
     1
102
RTVSPropertyOp4
 70
     1
102
RTVSPropertyOp5
 70
     1
102
RTVSPropertyOp6
 70
     1
102
RTVSPropertyOp7
 70
     1
102
RTVSPropertyOp8
 70
     1
102
RTVSPropertyOp9
 70
     1
102
RTVSPropertyOp10
 70
     1
102
RTVSPropertyOp11
 70
     1
102
RTVSPropertyOp12
 70
     1
102
RTVSPropertyOp13
 70
     1
102
RTVSPropertyOp14
 70
     1
102
RTVSPropertyOp15
 70
     1
102
RTVSPropertyOp16
 70
     1
102
RTVSPropertyOp17
 70
     1
102
RTVSPropertyOp18
 70
     1
102
RTVSPropertyOp19
 70
     1
102
RTVSPropertyOp20
 70
     1
102
RTVSPropertyOp21
 70
     1
102
RTVSPropertyOp22
 70
     1
102
RTVSPropertyOp23
 70
     1
102
RTVSPropertyOp24
 70
     1
102
RTVSPropertyOp25
 70
     1
102
RTVSPropertyOp26
 70
     1
102
RTVSPropertyOp27
 70
     1
102
RTVSPropertyOp28
 70
     1
102
RTVSPropertyOp29
 70
     1
102
RTVSPropertyOp30
 70
     1
102
RTVSPropertyOp31
 70
     1
102
RTVSPropertyOp32
 70
     1
  0
XRECORD
  5
6C9
102
{ACAD_REACTORS
330
6C8
102
}
330
6C8
100
AcDbXrecord
280
     1
102
RTVSPropertyOp0
 70
     1
102
RTVSPropertyOp1
 70
     1
102
RTVSPropertyOp2
 70
     1
102
RTVSPropertyOp3
 70
     1
102
RTVSPropertyOp4
 70
     1
102
RTVSPropertyOp5
 70
     1
102
RTVSPropertyOp6
 70
     1
102
RTVSPropertyOp7
 70
     1
102
RTVSPropertyOp8
 70
     1
102
RTVSPropertyOp9
 70
     1
102
RTVSPropertyOp10
 70
     1
102
RTVSPropertyOp11
 70
     1
102
RTVSPropertyOp12
 70
     1
102
RTVSPropertyOp13
 70
     1
102
RTVSPropertyOp14
 70
     1
102
RTVSPropertyOp15
 70
     1
102
RTVSPropertyOp16
 70
     1
102
RTVSPropertyOp17
 70
     1
102
RTVSPropertyOp18
 70
     1
102
RTVSPropertyOp19
 70
     1
102
RTVSPropertyOp20
 70
     1
102
RTVSPropertyOp21
 70
     1
102
RTVSPropertyOp22
 70
     1
102
RTVSPropertyOp23
 70
     1
102
RTVSPropertyOp24
 70
     1
102
RTVSPropertyOp25
 70
     1
102
RTVSPropertyOp26
 70
     1
102
RTVSPropertyOp27
 70
     1
102
RTVSPropertyOp28
 70
     1
102
RTVSPropertyOp29
 70
     1
102
RTVSPropertyOp30
 70
     1
102
RTVSPropertyOp31
 70
     1
102
RTVSPropertyOp32
 70
     1
  0
XRECORD
  5
6CD
102
{ACAD_REACTORS
330
6CC
102
}
330
6CC
100
AcDbXrecord
280
     1
102
RTVSPropertyOp0
 70
     1
102
RTVSPropertyOp1
 70
     1
102
RTVSPropertyOp2
 70
     1
102
RTVSPropertyOp3
 70
     1
102
RTVSPropertyOp4
 70
     1
102
RTVSPropertyOp5
 70
     1
102
RTVSPropertyOp6
 70
     1
102
RTVSPropertyOp7
 70
     1
102
RTVSPropertyOp8
 70
     1
102
RTVSPropertyOp9
 70
     1
102
RTVSPropertyOp10
 70
     1
102
RTVSPropertyOp11
 70
     1
102
RTVSPropertyOp12
 70
     1
102
RTVSPropertyOp13
 70
     1
102
RTVSPropertyOp14
 70
     1
102
RTVSPropertyOp15
 70
     1
102
RTVSPropertyOp16
 70
     1
102
RTVSPropertyOp17
 70
     1
102
RTVSPropertyOp18
 70
     1
102
RTVSPropertyOp19
 70
     1
102
RTVSPropertyOp20
 70
     1
102
RTVSPropertyOp21
 70
     1
102
RTVSPropertyOp22
 70
     1
102
RTVSPropertyOp23
 70
     1
102
RTVSPropertyOp24
 70
     1
102
RTVSPropertyOp25
 70
     1
102
RTVSPropertyOp26
 70
     1
102
RTVSPropertyOp27
 70
     1
102
RTVSPropertyOp28
 70
     1
102
RTVSPropertyOp29
 70
     1
102
RTVSPropertyOp30
 70
     1
102
RTVSPropertyOp31
 70
     1
102
RTVSPropertyOp32
 70
     1
  0
XRECORD
  5
6E7
102
{ACAD_REACTORS
330
6E6
102
}
330
6E6
100
AcDbXrecord
280
     1
102
RTVSPropertyOp0
 70
     0
102
RTVSPropertyOp1
 70
     0
102
RTVSPropertyOp2
 70
     0
102
RTVSPropertyOp3
 70
     0
102
RTVSPropertyOp4
 70
     0
102
RTVSPropertyOp5
 70
     0
102
RTVSPropertyOp6
 70
     0
102
RTVSPropertyOp7
 70
     0
102
RTVSPropertyOp8
 70
     0
102
RTVSPropertyOp9
 70
     0
102
RTVSPropertyOp10
 70
     0
102
RTVSPropertyOp11
 70
     0
102
RTVSPropertyOp12
 70
     0
102
RTVSPropertyOp13
 70
     0
102
RTVSPropertyOp14
 70
     2
102
RTVSPropertyOp15
 70
     0
102
RTVSPropertyOp16
 70
     0
102
RTVSPropertyOp17
 70
     0
102
RTVSPropertyOp18
 70
     0
102
RTVSPropertyOp19
 70
     0
102
RTVSPropertyOp20
 70
     0
102
RTVSPropertyOp21
 70
     0
102
RTVSPropertyOp22
 70
     0
102
RTVSPropertyOp23
 70
     0
102
RTVSPropertyOp24
 70
     0
102
RTVSPropertyOp25
 70
     0
102
RTVSPropertyOp26
 70
     0
102
RTVSPropertyOp27
 70
     0
102
RTVSPropertyOp28
 70
     0
102
RTVSPropertyOp29
 70
     0
102
RTVSPropertyOp30
 70
     0
102
RTVSPropertyOp31
 70
     0
102
RTVSPropertyOp32
 70
     0
  0
XRECORD
  5
6D5
102
{ACAD_REACTORS
330
6D4
102
}
330
6D4
100
AcDbXrecord
280
     1
102
RTVSPropertyOp0
 70
     1
102
RTVSPropertyOp1
 70
     1
102
RTVSPropertyOp2
 70
     1
102
RTVSPropertyOp3
 70
     1
102
RTVSPropertyOp4
 70
     1
102
RTVSPropertyOp5
 70
     1
102
RTVSPropertyOp6
 70
     1
102
RTVSPropertyOp7
 70
     1
102
RTVSPropertyOp8
 70
     1
102
RTVSPropertyOp9
 70
     1
102
RTVSPropertyOp10
 70
     1
102
RTVSPropertyOp11
 70
     1
102
RTVSPropertyOp12
 70
     1
102
RTVSPropertyOp13
 70
     1
102
RTVSPropertyOp14
 70
     1
102
RTVSPropertyOp15
 70
     1
102
RTVSPropertyOp16
 70
     1
102
RTVSPropertyOp17
 70
     1
102
RTVSPropertyOp18
 70
     1
102
RTVSPropertyOp19
 70
     1
102
RTVSPropertyOp20
 70
     1
102
RTVSPropertyOp21
 70
     1
102
RTVSPropertyOp22
 70
     1
102
RTVSPropertyOp23
 70
     1
102
RTVSPropertyOp24
 70
     1
102
RTVSPropertyOp25
 70
     1
102
RTVSPropertyOp26
 70
     1
102
RTVSPropertyOp27
 70
     1
102
RTVSPropertyOp28
 70
     1
102
RTVSPropertyOp29
 70
     1
102
RTVSPropertyOp30
 70
     1
102
RTVSPropertyOp31
 70
     1
102
RTVSPropertyOp32
 70
     1
  0
XRECORD
  5
6B9
102
{ACAD_REACTORS
330
6B8
102
}
330
6B8
100
AcDbXrecord
280
     1
102
RTVSPropertyOp0
 70
     1
102
RTVSPropertyOp1
 70
     1
102
RTVSPropertyOp2
 70
     1
102
RTVSPropertyOp3
 70
     1
102
RTVSPropertyOp4
 70
     1
102
RTVSPropertyOp5
 70
     1
102
RTVSPropertyOp6
 70
     1
102
RTVSPropertyOp7
 70
     1
102
RTVSPropertyOp8
 70
     1
102
RTVSPropertyOp9
 70
     1
102
RTVSPropertyOp10
 70
     1
102
RTVSPropertyOp11
 70
     1
102
RTVSPropertyOp12
 70
     1
102
RTVSPropertyOp13
 70
     1
102
RTVSPropertyOp14
 70
     1
102
RTVSPropertyOp15
 70
     1
102
RTVSPropertyOp16
 70
     1
102
RTVSPropertyOp17
 70
     1
102
RTVSPropertyOp18
 70
     1
102
RTVSPropertyOp19
 70
     1
102
RTVSPropertyOp20
 70
     1
102
RTVSPropertyOp21
 70
     1
102
RTVSPropertyOp22
 70
     1
102
RTVSPropertyOp23
 70
     1
102
RTVSPropertyOp24
 70
     1
102
RTVSPropertyOp25
 70
     1
102
RTVSPropertyOp26
 70
     1
102
RTVSPropertyOp27
 70
     1
102
RTVSPropertyOp28
 70
     1
102
RTVSPropertyOp29
 70
     1
102
RTVSPropertyOp30
 70
     1
102
RTVSPropertyOp31
 70
     1
102
RTVSPropertyOp32
 70
     1
  0
XRECORD
  5
6BB
102
{ACAD_REACTORS
330
6BA
102
}
330
6BA
100
AcDbXrecord
280
     1
102
RTVSPropertyOp0
 70
     1
102
RTVSPropertyOp1
 70
     1
102
RTVSPropertyOp2
 70
     1
102
RTVSPropertyOp3
 70
     1
102
RTVSPropertyOp4
 70
     1
102
RTVSPropertyOp5
 70
     1
102
RTVSPropertyOp6
 70
     1
102
RTVSPropertyOp7
 70
     1
102
RTVSPropertyOp8
 70
     1
102
RTVSPropertyOp9
 70
     1
102
RTVSPropertyOp10
 70
     1
102
RTVSPropertyOp11
 70
     1
102
RTVSPropertyOp12
 70
     1
102
RTVSPropertyOp13
 70
     1
102
RTVSPropertyOp14
 70
     1
102
RTVSPropertyOp15
 70
     1
102
RTVSPropertyOp16
 70
     1
102
RTVSPropertyOp17
 70
     1
102
RTVSPropertyOp18
 70
     1
102
RTVSPropertyOp19
 70
     1
102
RTVSPropertyOp20
 70
     1
102
RTVSPropertyOp21
 70
     1
102
RTVSPropertyOp22
 70
     1
102
RTVSPropertyOp23
 70
     1
102
RTVSPropertyOp24
 70
     1
102
RTVSPropertyOp25
 70
     1
102
RTVSPropertyOp26
 70
     1
102
RTVSPropertyOp27
 70
     1
102
RTVSPropertyOp28
 70
     1
102
RTVSPropertyOp29
 70
     1
102
RTVSPropertyOp30
 70
     1
102
RTVSPropertyOp31
 70
     1
102
RTVSPropertyOp32
 70
     1
  0
XRECORD
  5
6BD
102
{ACAD_REACTORS
330
6BC
102
}
330
6BC
100
AcDbXrecord
280
     1
102
RTVSPropertyOp0
 70
     1
102
RTVSPropertyOp1
 70
     1
102
RTVSPropertyOp2
 70
     1
102
RTVSPropertyOp3
 70
     1
102
RTVSPropertyOp4
 70
     1
102
RTVSPropertyOp5
 70
     1
102
RTVSPropertyOp6
 70
     1
102
RTVSPropertyOp7
 70
     1
102
RTVSPropertyOp8
 70
     1
102
RTVSPropertyOp9
 70
     1
102
RTVSPropertyOp10
 70
     1
102
RTVSPropertyOp11
 70
     1
102
RTVSPropertyOp12
 70
     1
102
RTVSPropertyOp13
 70
     1
102
RTVSPropertyOp14
 70
     1
102
RTVSPropertyOp15
 70
     1
102
RTVSPropertyOp16
 70
     1
102
RTVSPropertyOp17
 70
     1
102
RTVSPropertyOp18
 70
     1
102
RTVSPropertyOp19
 70
     1
102
RTVSPropertyOp20
 70
     1
102
RTVSPropertyOp21
 70
     1
102
RTVSPropertyOp22
 70
     1
102
RTVSPropertyOp23
 70
     1
102
RTVSPropertyOp24
 70
     1
102
RTVSPropertyOp25
 70
     1
102
RTVSPropertyOp26
 70
     1
102
RTVSPropertyOp27
 70
     1
102
RTVSPropertyOp28
 70
     1
102
RTVSPropertyOp29
 70
     1
102
RTVSPropertyOp30
 70
     1
102
RTVSPropertyOp31
 70
     1
102
RTVSPropertyOp32
 70
     1
  0
XRECORD
  5
6BF
102
{ACAD_REACTORS
330
6BE
102
}
330
6BE
100
AcDbXrecord
280
     1
102
RTVSPropertyOp0
 70
     1
102
RTVSPropertyOp1
 70
     1
102
RTVSPropertyOp2
 70
     1
102
RTVSPropertyOp3
 70
     1
102
RTVSPropertyOp4
 70
     1
102
RTVSPropertyOp5
 70
     1
102
RTVSPropertyOp6
 70
     1
102
RTVSPropertyOp7
 70
     1
102
RTVSPropertyOp8
 70
     1
102
RTVSPropertyOp9
 70
     1
102
RTVSPropertyOp10
 70
     1
102
RTVSPropertyOp11
 70
     1
102
RTVSPropertyOp12
 70
     1
102
RTVSPropertyOp13
 70
     1
102
RTVSPropertyOp14
 70
     1
102
RTVSPropertyOp15
 70
     1
102
RTVSPropertyOp16
 70
     1
102
RTVSPropertyOp17
 70
     1
102
RTVSPropertyOp18
 70
     1
102
RTVSPropertyOp19
 70
     1
102
RTVSPropertyOp20
 70
     1
102
RTVSPropertyOp21
 70
     1
102
RTVSPropertyOp22
 70
     1
102
RTVSPropertyOp23
 70
     1
102
RTVSPropertyOp24
 70
     1
102
RTVSPropertyOp25
 70
     1
102
RTVSPropertyOp26
 70
     1
102
RTVSPropertyOp27
 70
     1
102
RTVSPropertyOp28
 70
     1
102
RTVSPropertyOp29
 70
     1
102
RTVSPropertyOp30
 70
     1
102
RTVSPropertyOp31
 70
     1
102
RTVSPropertyOp32
 70
     1
  0
XRECORD
  5
6C7
102
{ACAD_REACTORS
330
6C6
102
}
330
6C6
100
AcDbXrecord
280
     1
102
RTVSPropertyOp0
 70
     1
102
RTVSPropertyOp1
 70
     1
102
RTVSPropertyOp2
 70
     1
102
RTVSPropertyOp3
 70
     1
102
RTVSPropertyOp4
 70
     1
102
RTVSPropertyOp5
 70
     1
102
RTVSPropertyOp6
 70
     1
102
RTVSPropertyOp7
 70
     1
102
RTVSPropertyOp8
 70
     1
102
RTVSPropertyOp9
 70
     1
102
RTVSPropertyOp10
 70
     1
102
RTVSPropertyOp11
 70
     1
102
RTVSPropertyOp12
 70
     1
102
RTVSPropertyOp13
 70
     1
102
RTVSPropertyOp14
 70
     1
102
RTVSPropertyOp15
 70
     1
102
RTVSPropertyOp16
 70
     1
102
RTVSPropertyOp17
 70
     1
102
RTVSPropertyOp18
 70
     1
102
RTVSPropertyOp19
 70
     1
102
RTVSPropertyOp20
 70
     1
102
RTVSPropertyOp21
 70
     1
102
RTVSPropertyOp22
 70
     1
102
RTVSPropertyOp23
 70
     1
102
RTVSPropertyOp24
 70
     1
102
RTVSPropertyOp25
 70
     1
102
RTVSPropertyOp26
 70
     1
102
RTVSPropertyOp27
 70
     1
102
RTVSPropertyOp28
 70
     1
102
RTVSPropertyOp29
 70
     1
102
RTVSPropertyOp30
 70
     1
102
RTVSPropertyOp31
 70
     1
102
RTVSPropertyOp32
 70
     1
  0
XRECORD
  5
6E3
102
{ACAD_REACTORS
330
6E2
102
}
330
6E2
100
AcDbXrecord
280
     1
102
RTVSPropertyOp0
 70
     0
102
RTVSPropertyOp1
 70
     0
102
RTVSPropertyOp2
 70
     0
102
RTVSPropertyOp3
 70
     0
102
RTVSPropertyOp4
 70
     0
102
RTVSPropertyOp5
 70
     0
102
RTVSPropertyOp6
 70
     0
102
RTVSPropertyOp7
 70
     0
102
RTVSPropertyOp8
 70
     0
102
RTVSPropertyOp9
 70
     0
102
RTVSPropertyOp10
 70
     0
102
RTVSPropertyOp11
 70
     0
102
RTVSPropertyOp12
 70
     0
102
RTVSPropertyOp13
 70
     0
102
RTVSPropertyOp14
 70
     2
102
RTVSPropertyOp15
 70
     0
102
RTVSPropertyOp16
 70
     0
102
RTVSPropertyOp17
 70
     0
102
RTVSPropertyOp18
 70
     0
102
RTVSPropertyOp19
 70
     0
102
RTVSPropertyOp20
 70
     0
102
RTVSPropertyOp21
 70
     0
102
RTVSPropertyOp22
 70
     0
102
RTVSPropertyOp23
 70
     0
102
RTVSPropertyOp24
 70
     0
102
RTVSPropertyOp25
 70
     0
102
RTVSPropertyOp26
 70
     0
102
RTVSPropertyOp27
 70
     0
102
RTVSPropertyOp28
 70
     0
102
RTVSPropertyOp29
 70
     0
102
RTVSPropertyOp30
 70
     0
102
RTVSPropertyOp31
 70
     0
102
RTVSPropertyOp32
 70
     0
  0
XRECORD
  5
6D3
102
{ACAD_REACTORS
330
6D2
102
}
330
6D2
100
AcDbXrecord
280
     1
102
RTVSPropertyOp0
 70
     1
102
RTVSPropertyOp1
 70
     1
102
RTVSPropertyOp2
 70
     1
102
RTVSPropertyOp3
 70
     1
102
RTVSPropertyOp4
 70
     1
102
RTVSPropertyOp5
 70
     1
102
RTVSPropertyOp6
 70
     1
102
RTVSPropertyOp7
 70
     1
102
RTVSPropertyOp8
 70
     1
102
RTVSPropertyOp9
 70
     1
102
RTVSPropertyOp10
 70
     1
102
RTVSPropertyOp11
 70
     1
102
RTVSPropertyOp12
 70
     1
102
RTVSPropertyOp13
 70
     1
102
RTVSPropertyOp14
 70
     1
102
RTVSPropertyOp15
 70
     1
102
RTVSPropertyOp16
 70
     1
102
RTVSPropertyOp17
 70
     1
102
RTVSPropertyOp18
 70
     1
102
RTVSPropertyOp19
 70
     1
102
RTVSPropertyOp20
 70
     1
102
RTVSPropertyOp21
 70
     1
102
RTVSPropertyOp22
 70
     1
102
RTVSPropertyOp23
 70
     1
102
RTVSPropertyOp24
 70
     1
102
RTVSPropertyOp25
 70
     1
102
RTVSPropertyOp26
 70
     1
102
RTVSPropertyOp27
 70
     1
102
RTVSPropertyOp28
 70
     1
102
RTVSPropertyOp29
 70
     1
102
RTVSPropertyOp30
 70
     1
102
RTVSPropertyOp31
 70
     1
102
RTVSPropertyOp32
 70
     1
  0
XRECORD
  5
6E5
102
{ACAD_REACTORS
330
6E4
102
}
330
6E4
100
AcDbXrecord
280
     1
102
RTVSPropertyOp0
 70
     0
102
RTVSPropertyOp1
 70
     0
102
RTVSPropertyOp2
 70
     0
102
RTVSPropertyOp3
 70
     0
102
RTVSPropertyOp4
 70
     0
102
RTVSPropertyOp5
 70
     0
102
RTVSPropertyOp6
 70
     0
102
RTVSPropertyOp7
 70
     0
102
RTVSPropertyOp8
 70
     0
102
RTVSPropertyOp9
 70
     0
102
RTVSPropertyOp10
 70
     0
102
RTVSPropertyOp11
 70
     0
102
RTVSPropertyOp12
 70
     0
102
RTVSPropertyOp13
 70
     0
102
RTVSPropertyOp14
 70
     2
102
RTVSPropertyOp15
 70
     0
102
RTVSPropertyOp16
 70
     0
102
RTVSPropertyOp17
 70
     0
102
RTVSPropertyOp18
 70
     0
102
RTVSPropertyOp19
 70
     0
102
RTVSPropertyOp20
 70
     0
102
RTVSPropertyOp21
 70
     0
102
RTVSPropertyOp22
 70
     0
102
RTVSPropertyOp23
 70
     0
102
RTVSPropertyOp24
 70
     0
102
RTVSPropertyOp25
 70
     0
102
RTVSPropertyOp26
 70
     0
102
RTVSPropertyOp27
 70
     0
102
RTVSPropertyOp28
 70
     0
102
RTVSPropertyOp29
 70
     0
102
RTVSPropertyOp30
 70
     0
102
RTVSPropertyOp31
 70
     0
102
RTVSPropertyOp32
 70
     0
  0
XRECORD
  5
6CB
102
{ACAD_REACTORS
330
6CA
102
}
330
6CA
100
AcDbXrecord
280
     1
102
RTVSPropertyOp0
 70
     1
102
RTVSPropertyOp1
 70
     1
102
RTVSPropertyOp2
 70
     1
102
RTVSPropertyOp3
 70
     1
102
RTVSPropertyOp4
 70
     1
102
RTVSPropertyOp5
 70
     1
102
RTVSPropertyOp6
 70
     1
102
RTVSPropertyOp7
 70
     1
102
RTVSPropertyOp8
 70
     1
102
RTVSPropertyOp9
 70
     1
102
RTVSPropertyOp10
 70
     1
102
RTVSPropertyOp11
 70
     1
102
RTVSPropertyOp12
 70
     1
102
RTVSPropertyOp13
 70
     1
102
RTVSPropertyOp14
 70
     1
102
RTVSPropertyOp15
 70
     1
102
RTVSPropertyOp16
 70
     1
102
RTVSPropertyOp17
 70
     1
102
RTVSPropertyOp18
 70
     1
102
RTVSPropertyOp19
 70
     1
102
RTVSPropertyOp20
 70
     1
102
RTVSPropertyOp21
 70
     1
102
RTVSPropertyOp22
 70
     1
102
RTVSPropertyOp23
 70
     1
102
RTVSPropertyOp24
 70
     1
102
RTVSPropertyOp25
 70
     1
102
RTVSPropertyOp26
 70
     1
102
RTVSPropertyOp27
 70
     1
102
RTVSPropertyOp28
 70
     1
102
RTVSPropertyOp29
 70
     1
102
RTVSPropertyOp30
 70
     1
102
RTVSPropertyOp31
 70
     1
102
RTVSPropertyOp32
 70
     1
  0
XRECORD
  5
6E1
102
{ACAD_REACTORS
330
6E0
102
}
330
6E0
100
AcDbXrecord
280
     1
102
RTVSPropertyOp0
 70
     1
102
RTVSPropertyOp1
 70
     1
102
RTVSPropertyOp2
 70
     1
102
RTVSPropertyOp3
 70
     1
102
RTVSPropertyOp4
 70
     1
102
RTVSPropertyOp5
 70
     1
102
RTVSPropertyOp6
 70
     1
102
RTVSPropertyOp7
 70
     1
102
RTVSPropertyOp8
 70
     1
102
RTVSPropertyOp9
 70
     1
102
RTVSPropertyOp10
 70
     1
102
RTVSPropertyOp11
 70
     1
102
RTVSPropertyOp12
 70
     1
102
RTVSPropertyOp13
 70
     1
102
RTVSPropertyOp14
 70
     1
102
RTVSPropertyOp15
 70
     1
102
RTVSPropertyOp16
 70
     1
102
RTVSPropertyOp17
 70
     1
102
RTVSPropertyOp18
 70
     1
102
RTVSPropertyOp19
 70
     1
102
RTVSPropertyOp20
 70
     1
102
RTVSPropertyOp21
 70
     1
102
RTVSPropertyOp22
 70
     1
102
RTVSPropertyOp23
 70
     1
102
RTVSPropertyOp24
 70
     1
102
RTVSPropertyOp25
 70
     1
102
RTVSPropertyOp26
 70
     1
102
RTVSPropertyOp27
 70
     1
102
RTVSPropertyOp28
 70
     1
102
RTVSPropertyOp29
 70
     1
102
RTVSPropertyOp30
 70
     1
102
RTVSPropertyOp31
 70
     1
102
RTVSPropertyOp32
 70
     1
  0
XRECORD
  5
6DF
102
{ACAD_REACTORS
330
6DE
102
}
330
6DE
100
AcDbXrecord
280
     1
102
RTVSPropertyOp0
 70
     1
102
RTVSPropertyOp1
 70
     1
102
RTVSPropertyOp2
 70
     1
102
RTVSPropertyOp3
 70
     1
102
RTVSPropertyOp4
 70
     1
102
RTVSPropertyOp5
 70
     1
102
RTVSPropertyOp6
 70
     1
102
RTVSPropertyOp7
 70
     1
102
RTVSPropertyOp8
 70
     1
102
RTVSPropertyOp9
 70
     1
102
RTVSPropertyOp10
 70
     1
102
RTVSPropertyOp11
 70
     1
102
RTVSPropertyOp12
 70
     1
102
RTVSPropertyOp13
 70
     1
102
RTVSPropertyOp14
 70
     1
102
RTVSPropertyOp15
 70
     1
102
RTVSPropertyOp16
 70
     1
102
RTVSPropertyOp17
 70
     1
102
RTVSPropertyOp18
 70
     1
102
RTVSPropertyOp19
 70
     1
102
RTVSPropertyOp20
 70
     1
102
RTVSPropertyOp21
 70
     1
102
RTVSPropertyOp22
 70
     1
102
RTVSPropertyOp23
 70
     1
102
RTVSPropertyOp24
 70
     1
102
RTVSPropertyOp25
 70
     1
102
RTVSPropertyOp26
 70
     1
102
RTVSPropertyOp27
 70
     1
102
RTVSPropertyOp28
 70
     1
102
RTVSPropertyOp29
 70
     1
102
RTVSPropertyOp30
 70
     1
102
RTVSPropertyOp31
 70
     1
102
RTVSPropertyOp32
 70
     1
  0
XRECORD
  5
6D9
102
{ACAD_REACTORS
330
6D8
102
}
330
6D8
100
AcDbXrecord
280
     1
102
RTVSPropertyOp0
 70
     1
102
RTVSPropertyOp1
 70
     1
102
RTVSPropertyOp2
 70
     1
102
RTVSPropertyOp3
 70
     1
102
RTVSPropertyOp4
 70
     1
102
RTVSPropertyOp5
 70
     1
102
RTVSPropertyOp6
 70
     1
102
RTVSPropertyOp7
 70
     1
102
RTVSPropertyOp8
 70
     1
102
RTVSPropertyOp9
 70
     1
102
RTVSPropertyOp10
 70
     1
102
RTVSPropertyOp11
 70
     1
102
RTVSPropertyOp12
 70
     1
102
RTVSPropertyOp13
 70
     1
102
RTVSPropertyOp14
 70
     1
102
RTVSPropertyOp15
 70
     1
102
RTVSPropertyOp16
 70
     1
102
RTVSPropertyOp17
 70
     1
102
RTVSPropertyOp18
 70
     1
102
RTVSPropertyOp19
 70
     1
102
RTVSPropertyOp20
 70
     1
102
RTVSPropertyOp21
 70
     1
102
RTVSPropertyOp22
 70
     1
102
RTVSPropertyOp23
 70
     1
102
RTVSPropertyOp24
 70
     1
102
RTVSPropertyOp25
 70
     1
102
RTVSPropertyOp26
 70
     1
102
RTVSPropertyOp27
 70
     1
102
RTVSPropertyOp28
 70
     1
102
RTVSPropertyOp29
 70
     1
102
RTVSPropertyOp30
 70
     1
102
RTVSPropertyOp31
 70
     1
102
RTVSPropertyOp32
 70
     1
  0
XRECORD
  5
6DB
102
{ACAD_REACTORS
330
6DA
102
}
330
6DA
100
AcDbXrecord
280
     1
102
RTVSPropertyOp0
 70
     1
102
RTVSPropertyOp1
 70
     1
102
RTVSPropertyOp2
 70
     1
102
RTVSPropertyOp3
 70
     1
102
RTVSPropertyOp4
 70
     1
102
RTVSPropertyOp5
 70
     1
102
RTVSPropertyOp6
 70
     1
102
RTVSPropertyOp7
 70
     1
102
RTVSPropertyOp8
 70
     1
102
RTVSPropertyOp9
 70
     1
102
RTVSPropertyOp10
 70
     1
102
RTVSPropertyOp11
 70
     1
102
RTVSPropertyOp12
 70
     1
102
RTVSPropertyOp13
 70
     1
102
RTVSPropertyOp14
 70
     1
102
RTVSPropertyOp15
 70
     1
102
RTVSPropertyOp16
 70
     1
102
RTVSPropertyOp17
 70
     1
102
RTVSPropertyOp18
 70
     1
102
RTVSPropertyOp19
 70
     1
102
RTVSPropertyOp20
 70
     1
102
RTVSPropertyOp21
 70
     1
102
RTVSPropertyOp22
 70
     1
102
RTVSPropertyOp23
 70
     1
102
RTVSPropertyOp24
 70
     1
102
RTVSPropertyOp25
 70
     1
102
RTVSPropertyOp26
 70
     1
102
RTVSPropertyOp27
 70
     1
102
RTVSPropertyOp28
 70
     1
102
RTVSPropertyOp29
 70
     1
102
RTVSPropertyOp30
 70
     1
102
RTVSPropertyOp31
 70
     1
102
RTVSPropertyOp32
 70
     1
  0
XRECORD
  5
6D1
102
{ACAD_REACTORS
330
6D0
102
}
330
6D0
100
AcDbXrecord
280
     1
102
RTVSPropertyOp0
 70
     1
102
RTVSPropertyOp1
 70
     1
102
RTVSPropertyOp2
 70
     1
102
RTVSPropertyOp3
 70
     1
102
RTVSPropertyOp4
 70
     1
102
RTVSPropertyOp5
 70
     1
102
RTVSPropertyOp6
 70
     1
102
RTVSPropertyOp7
 70
     1
102
RTVSPropertyOp8
 70
     1
102
RTVSPropertyOp9
 70
     1
102
RTVSPropertyOp10
 70
     1
102
RTVSPropertyOp11
 70
     1
102
RTVSPropertyOp12
 70
     1
102
RTVSPropertyOp13
 70
     1
102
RTVSPropertyOp14
 70
     1
102
RTVSPropertyOp15
 70
     1
102
RTVSPropertyOp16
 70
     1
102
RTVSPropertyOp17
 70
     1
102
RTVSPropertyOp18
 70
     1
102
RTVSPropertyOp19
 70
     1
102
RTVSPropertyOp20
 70
     1
102
RTVSPropertyOp21
 70
     1
102
RTVSPropertyOp22
 70
     1
102
RTVSPropertyOp23
 70
     1
102
RTVSPropertyOp24
 70
     1
102
RTVSPropertyOp25
 70
     1
102
RTVSPropertyOp26
 70
     1
102
RTVSPropertyOp27
 70
     1
102
RTVSPropertyOp28
 70
     1
102
RTVSPropertyOp29
 70
     1
102
RTVSPropertyOp30
 70
     1
102
RTVSPropertyOp31
 70
     1
102
RTVSPropertyOp32
 70
     1
  0
XRECORD
  5
6C5
102
{ACAD_REACTORS
330
6C4
102
}
330
6C4
100
AcDbXrecord
280
     1
102
RTVSPropertyOp0
 70
     1
102
RTVSPropertyOp1
 70
     1
102
RTVSPropertyOp2
 70
     1
102
RTVSPropertyOp3
 70
     1
102
RTVSPropertyOp4
 70
     1
102
RTVSPropertyOp5
 70
     1
102
RTVSPropertyOp6
 70
     1
102
RTVSPropertyOp7
 70
     1
102
RTVSPropertyOp8
 70
     1
102
RTVSPropertyOp9
 70
     1
102
RTVSPropertyOp10
 70
     1
102
RTVSPropertyOp11
 70
     1
102
RTVSPropertyOp12
 70
     1
102
RTVSPropertyOp13
 70
     1
102
RTVSPropertyOp14
 70
     1
102
RTVSPropertyOp15
 70
     1
102
RTVSPropertyOp16
 70
     1
102
RTVSPropertyOp17
 70
     1
102
RTVSPropertyOp18
 70
     1
102
RTVSPropertyOp19
 70
     1
102
RTVSPropertyOp20
 70
     1
102
RTVSPropertyOp21
 70
     1
102
RTVSPropertyOp22
 70
     1
102
RTVSPropertyOp23
 70
     1
102
RTVSPropertyOp24
 70
     1
102
RTVSPropertyOp25
 70
     1
102
RTVSPropertyOp26
 70
     1
102
RTVSPropertyOp27
 70
     1
102
RTVSPropertyOp28
 70
     1
102
RTVSPropertyOp29
 70
     1
102
RTVSPropertyOp30
 70
     1
102
RTVSPropertyOp31
 70
     1
102
RTVSPropertyOp32
 70
     1
  0
XRECORD
  5
6DD
102
{ACAD_REACTORS
330
6DC
102
}
330
6DC
100
AcDbXrecord
280
     1
102
RTVSPropertyOp0
 70
     1
102
RTVSPropertyOp1
 70
     1
102
RTVSPropertyOp2
 70
     1
102
RTVSPropertyOp3
 70
     1
102
RTVSPropertyOp4
 70
     1
102
RTVSPropertyOp5
 70
     1
102
RTVSPropertyOp6
 70
     1
102
RTVSPropertyOp7
 70
     1
102
RTVSPropertyOp8
 70
     1
102
RTVSPropertyOp9
 70
     1
102
RTVSPropertyOp10
 70
     1
102
RTVSPropertyOp11
 70
     1
102
RTVSPropertyOp12
 70
     1
102
RTVSPropertyOp13
 70
     1
102
RTVSPropertyOp14
 70
     1
102
RTVSPropertyOp15
 70
     1
102
RTVSPropertyOp16
 70
     1
102
RTVSPropertyOp17
 70
     1
102
RTVSPropertyOp18
 70
     1
102
RTVSPropertyOp19
 70
     1
102
RTVSPropertyOp20
 70
     1
102
RTVSPropertyOp21
 70
     1
102
RTVSPropertyOp22
 70
     1
102
RTVSPropertyOp23
 70
     1
102
RTVSPropertyOp24
 70
     1
102
RTVSPropertyOp25
 70
     1
102
RTVSPropertyOp26
 70
     1
102
RTVSPropertyOp27
 70
     1
102
RTVSPropertyOp28
 70
     1
102
RTVSPropertyOp29
 70
     1
102
RTVSPropertyOp30
 70
     1
102
RTVSPropertyOp31
 70
     1
102
RTVSPropertyOp32
 70
     1
  0
ENDSEC
  0
EOF
